All tabs: 1331485
We love you! Do you like us?
Bands » Switchfoot » Oh Gravity » Guitar tab

Oh Gravity by Switchfoot guitar tab

This is the final page that leads you directly to the Guitar Pro tab, drum tab, bass guitar tab, piano chord, etc you've chosen. This page provides information concerning Oh Gravity guitar tab such as its format, type of tab or chord, upload date, number of views, number of downloads and rating of this tab provided by thetabsbest.com users.

If the tab you have selected is a downloadable one (mostly these are Switchfoot Guitar Pro tabs), you need to insert so called "captcha" code and click "download" button. In case the code is correct you will be redirected to download page where your Oh Gravity gp4 file will be prepared. If you have entered wrong "captcha" code, you will be asked to insert it once again to get your Oh Gravity guitar tab.

If you browse all Switchfoot tabs or open the list of tabs and chords for Oh Gravity, you can see there are not only Guitar Pro tabs. Guitar tabs and chords, piano & power tabs, drum tabs, bass tabs - they all can be not only in Guitar Pro file format, but also in txt. In this case no special program is needed to read the tab. All you need to do it to open such Oh Gravity tab and you will see it displayed. If you wish, you can download our free tabs in txt.

thetabsbest.com tries to expand tabs database, adding new and hot songs as well as old and beloved melodies, so our archive could suit any person. Also we try to add chords and files for different music instruments, for example, you can find Switchfoot acoustic guitar tabs, piano chords or power tabs. Many songs like Oh Gravity have not only Oh Gravity guitar tab type, but provide wide selection of chords and tabs for all instruments. We also try to add more Switchfoot Guitar Pro tabs as they can bear data for whole band including sheet music.

Our newest addition - Switchfoot lyrics - is viewed the same. Select "lyrics" in the list of the tabs and chords and the text will be displayed on the next page.

File info:


Share it:

Rate it:
Rating: 0
Band nameSwitchfoot »
Song nameOh Gravity »
Tab typeGuitar tab »
Added07/04/2008
Size72.85 Kb
File formattxt
Views/Loads1/0

Sponsored links:
Wrong code.

Text of tab

   
Hey this is Denis Lafargue throughout this album the tuning goes from Standard to Drop 
You can figure it it out.

Artist: Switchfoot
Oh! Gravity.

Intro: guitar 1
/e------7-----------7-----------------------7------------->|\
|B------5-----------5-----------3-----------5------------->|
|G----66--6-66446-66--6-66446-44--4-44224-66--6-664------->|
|D-------------------------------------------------7------>|
|A-------------------------------------------------------->|
|D-------------------------------------------------------->|

/e------9/12\9-----------9/12\9-----------7/10\7---------9/12\9--|----------->|\
|B---------------------------------------------------------------|----------->|
|G---------------------------------------------------------------|666-------->|
|D-++77++++++++77+++++++++++++++++++55++++++++++++++77+++++++++++|666333++->|
|A-++77++++++++77+++++++++++++++++++55++++++++++++++77+++++++++++|444333++->|
\D-++77++++++++77+++++++++++++++++++55++++++++++++++77+++++++++++|+++333++->/
Thereís a fracture in the color bar/in the backseat of a parked car/by the
liquor store where the street light/keep you company Ďtill the next night
In the same town thereís the same scar/in the same glow of the liquor store/
by the freeway where the headlight/keeps her company Ďtill the next night

Chorus: both guitars (r= 10th fret)
e------------------------------------------------------------------>
B-rrrrrrrrrrrrrrrrrrrrrrrrrrrrrrrrrrrrrrrrrrrrrrrrrrrrrrrrrrrrrrrr->
G-9999999999999999999999999999999999999999999999999999999999999999->
D-7777777700000000777777770000000077777777000000007777777700000000->
A-7777777700000000777777770000000077777777000000007777777700000000->
D-7777777700000000777777770000000077777777000000007777777700000000->
Oh! gravity why canít we seem to keep it together? Sons of my enemies, why
canít we seem to keep it together?

Fill: guitar 1
/e----7-----------7----->|\
|B----5-----------5----->|
|G--66--6-66446-66--6--->|

Verse 1:
|e-------------------------------------------------------------------------->|
|B-------------------------------------------------------------------------->|
|G---------------------------------------------------------------6666------->|
|D-++++0-7-++++7-0-++++0-7-++++7-0-++++0-5-++++5-0-++++0-7-++++++66663333--->|
|A-++++0-7-++++7-0-++++0-7-++++7-0-++++0-5-++++5-0-++++0-7-++++++44443333--->|
\D-++++0-7-++++7-0-++++0-7-++++7-0-++++0-5-++++5-0-++++0-7-++++++----3333--->|/
In the back room of the pentagon/thereís a thin man with the line drawn/
with a red jaw and a red bite/watch the headline on the next night

---REPEAT CHORUS
chorus 2: both guitars (r=10th fret)
e-5555555555555555------------------------------------------------->
B-7777777777777777rrrrrrrrrrrrrrrrrrrrrrrrrrrrrrrr----------------->
G-666666666666666699999999999999999999999999999999----------------->
D-4444444400000000777777770000000077777777000000004444444400000000->
A-4444444400000000777777770000000077777777000000004444444400000000->
D-4444444400000000777777770000000077777777000000004444444400000000->
Why this tragedy? Why canít we seem to keep it together? oh gravity why
canít we seem to pull it together


Bridge:
|e-------------------------------------------------------------------->|
|B-------------------------------------------------------------------->|
|G-------------------------------------------------------------------->|
|D-77------00------77------0000000077------00------77------00000000--->|
|A-77------00------77------0000000077------00------77------00000000--->|
\D-77------00------77------0000000077------00------77------00000000--->|/
In the fallout, the fallout we found out/the hype wonít get you through/
connected, connected, I meant it; the hype wonít get you through

Fill 2: both guitars (r= 10th fret)
e---------------------------------->
B-rrrrrrrrrrrrrrrrrrrrrrrrrrrrrrrr->
G-99999999999999999999999999999999->
D-77777777000000007777777700000000->
A-77777777000000007777777700000000->
D-77777777000000007777777700000000->
Through!

Chorus 3: guitar 3/undistorted guitar (r= 10th fret)
e------------------------------------------------------------>
B-8-10-8-7--10-7---10---8---7--8-10-8-7--10-7----10-7---10-7->
G---------------9-----9---9--------------------9-------9----->
D------------------------------------------------------------>
A------------------------------------------------------------>
D------------------------------------------------------------>
Oh gravity why canít we seem to keep it together? Oh gravity why canít we
seem to pull it together?

---REPEAT CHORUS 2 2xs

============================================================================









02. American Dream
|Intro:  r= 11th fret
|e---------------------------------------------------------------------->|
|B---------------------------------------------------------------------->|
|G-44-44-44-44-44-44-44-44-44-44-44-44-18-16-14-13-11-9--44-44-44-44---->|
|D-44-44-44-44-44-44-44-44-44-44-44-44-18-16-14-13-11-9--44-44-44-44---->|
|A-22-22-22-22-22-22-22-22-22-22-22-22-16-14-12-11--9-7--22-22-22-22---->|
\E---------------------------------------------------------------------->|/

verse 1: B5
When success is equated with excess/the ambition for excess wrecks us/as
top of the mind becomes the bottom line/when success is equated with excess
If your time ainít been nothing for money/I start to feel really bad for
you, honey/Maybe honey, put your money where your mouthís been running/if
your time ainít been nothing but money

Pre-chorus: guitar 1
/e-0~------0~---------------------------------------->|\
|B-0~------0~---------------------------------------->|
|G-1~------3~---------------------------------------->|
|D-2~------4~----------6~-----------------8~--------->|
|A-2~------4~----------6~-----------------9~--------->|
|E-0~------2~----------4~-----------------6~--------->|
   I want out of this machine/it doesnít feel like freedom

Chorus:
|e-------------------------------------------------------------------------->|
|B-------------------------------------------------------------------------->|
|G-4444444444-----------33--4444444444-----------6666666666rrrrrrrrrrrrrr--->|
|D-44444444442222222222244--4444444444222222222226666666666rrrrrrrrrrrrrr--->|
|A-22222222222222222222211--222222222222222222222444444444499999999999999--->|
\E-----------00000000000--------------00000000000--------------------------->|/
This ainít my American dream/I want to live and die for bigger things/Iím
tired of fighting for just me/This ain't my American dream

------Intro

Verse 2: B5
When success is equated with excess/When weíre fighting for the Beamer, the
Lexus/As the heart and soul breathe in the company goals/Where success is
equated with excess

---REPEAT PRE-CHORUS

---REPEAT CHORUS

----Fill: B5


Bridge                                                        |
e--5bbbbb-2------5bbbbb-2------5bbbbb-2-----5bbbbb-2------------------------>|
|B-------------------------------------------------------------------------->|
|G---------44-44---------44-44----------------------44-44--18-16-14-13-11-9->|
|D---------44-44---------44-44---------22-22--------44-44--18-16-14-13-11-9->|
|A---------22-22---------22-22---------22-22--------22-22--16-14-12-11--9-7->|
\E-------------------------------------00-00-------------------------------->|
ĎCause babyís always talkiní Ďbout a ring/and talk has always been the
cheapest thing/Is it true would you do what I want you to/If I show up with
the right amount of bling? Like a puppet on a monetary string

|bridge:
|e-------------------------------------------------------------------------->|
|B-------------------------------------------------------------------------->|
|G-44-44-44-44--18-16-14-13-11-9-666666666666/rrrrrrrrrrrrrrrrrr~----------->|
|D-44-44-44-44--18-16-14-13-11-9-666666666666/rrrrrrrrrrrrrrrrrr~----------->|
|A-22-22-22-22--16-14-12-11--9-7-444444444444/999999999999999999~----------->|
\E-------------------------------------------------------------------------->|/
Maybe weíve been caught singing Red, white, blue, and green But that ainít
my America, That ainít my American dream

---REPEAT CHORUS

----Outro:
|e------------------------------------------------------------>|
|B------------------------------------------------------------>|
|G-44-44-44-44-44-44-44-44-44-44-44-44-18-16-14-13-11-9--4---->|
|D-44-44-44-44-44-44-44-44-44-44-44-44-18-16-14-13-11-9--4---->|
|A-22-22-22-22-22-22-22-22-22-22-22-22-16-14-12-11--9-7--2---->|
\E------------------------------------------------------------>|/













============================================================================

03. Dirty Second Hands

Intro: acoustic
e---------0-0--------0-0-----------0-0->
B---------3-3--------3-3-----------3-3->
G---------2-2--------2-2-----------2-2->
D-0-3-0-0-0-0--0-3-0-0--0-0-3-0-0--0-0->
A------3------------3----------3------->
D-------------------------------------->

Verse 1: acoustic (listen for strumming pattern)
e------------------------------------------------------------0-0--------0-0-->|
B------------------------------------------------------------3-3--------3-3-->|
G--7--9---10--12---11---9---10---9---7---9---10--12----------2-2--------2-2-->|
D----------------------------------------------------0-3-0-0-----0-3-0-0----->|
A--5--7---8---10---9----7---8----7---5---7---8---10-------3-----------3------>|
D-0--0---0---0---0----0----0---0---0---0---0--0------------------------------>|
Please donít be so naÔve/You know youíre not fooling anyone/Youíre not as
tough as you think/With dirty second hands, The dirty second hands

Verse 1: acoustic (listen for strumming pattern)
e------------------------------------------------------------0-0--------0-0-->|
B------------------------------------------------------------3-3--------3-3-->|
G--7--9---10--12---11---9---10---9---7---9---10--12----------2-2--------2-2-->|
D----------------------------------------------------0-3-0-0-----0-3-0-0----->|
A--5--7---8---10---9----7---8----7---5---7---8---10-------3-----------3------>|
D-0--0---0---0---0----0----0---0---0---0---0--0------------------------------>|
Canít get nothing for free/It becomes so predictable/You start fighting to
breathe/The dirty second hands, Your dirty second hands

chorus:                         REPEAT to here|          (bend hard and slow)
/e-----------------------------0-0--------0-0------|------------------------->|\
|B-----------------------------3-3--------3-3------|-6b---------------------->|
|G-1010---1010-----------------2-2--------2-2------|-5b---------------------->|
|D-10109-910109-9-101011111212-0-0-4-0-0--0-0-4-0-0|------------------------->|
|A-8-8-9-98-8-9-9-101011111212--------4----------4-|------------------------->|
|D-----9-9----9-9-101011111212---------------------|------------------------->|
Hereís the face of everything that breaks you down/Now you face the face of
everything that breaks you down

Verse 2: guitar 1
e------------------------------------------------------------0-0--------0-0-->|
B------------------------------------------------------------3-3--------3-3-->|
G--7--9---10--12---11---9---10---9---7---9---10--12----------2-2--------2-2-->|
D----------------------------------------------------0-3-0-0-----0-3-0-0----->|
A--5--7---8---10---9----7---8----7---5---7---8---10-------3-----------3------>|
D-0--0---0---0---0----0----0---0---0---0---0--0------------------------------>|
With an army of me/we invent our own enemies/Man verses machine/and the
dirty second hands, the dirty second hands---
In the land of the free/and the home of the remedy/The old clock is a thief/
With dirty second hands, with dirty second hands

---REPEAT CHORUS
/e-----------------------------0-0--------0-0---------------------------->|\
|B-----------------------------3-3--------3-3---------------------------->|
|G-1010---1010-----------------2-2--------2-2---------------------------->|
|D-10109-910109-9-101011111212-0-0-4-0-0--0-0-4-0-0---------------------->|
|A-8-8-9-98-8-9-9-101011111212--------4----------4----------------------->|
|D-----9-9----9-9-101011111212------------------------------------------->|

Bridge: continuing with the acoustic riff
Are you really as tough as you think? You blink and youíre over the brink/
You bleed but youíre blood runs pink/With dirty second hands, dirty second
hands/Youíre not quite as tough as you thought/You bought the American
rot /The very seed that you thought you shot/With dirty second hands, dirty
second hands/You might be right/The fight might be right inside you/The
blind leading the lied to/Tonight maybe you bind you with dirty second hands

---REPEAT CHORUS TWICE

end with the acoustic riff















============================================================================

04. Awakening
05. Circles
06. Amateur Lovers


Intro: guitar 1            (repeat)
/e-------|---------------+0-0000-000-000-+0-0000-000-000----->|\
|B-------|---------------+0-0000-000-000-+0-0000-000-000----->|
|G-------|---------------+1-4647-764-224-+1-4647-764-224----->|
|D-------|--------------------------------------------------->|
|A-------|--------------------------------------------------->|
|E-------|--------------------------------------------------->|
|                                                           |
|Intro: guitar 2           (repeat)                         |
|e-------|--------------------------------------------------->|
|B-------|--------------------------------------------------->|
|G-------|--------------------------------------------------->|
|D------2|--2--0-2-----0-2--2--0-2-----0-2--2--0-2-----0-2--->|
|A----02-|---------0--2------------0--2------------0--2------>|
\E-0~----|0---------------0---------------0------------------>|/

verse 1: bass guitar
Everyone I know/needs love like drugs/Like a common cold/we could never
shrug

Verse 1: guitar 1
/e-000--0---0---0---0-0-0-0-0---0--0000-0-0-0---0---0-0-0-0-0---0---0----->|\
|B-000--0---0---0---0---0---0---0--000--0---0---0---0---0---0---0---0----->|
|G-777--4---4---7---6---9---9---7--676--9---9---7---6---9---9---7---6----->|
|D------------------------------------------------------------------------>|
|A------------------------------------------------------------------------>|
|E------------------------------------------------------------------------>|
|                                                                        |
|verse 1: guitar 2                                                       |
|e------------------------------------------------------------------------>|
|B------------------------------------------------------------------------>|
|G------------------------------------------------------------------------>|
|D------2--0-2-----0-2--2--0-2-----0-2--2--0-2-----0-2--2--0-2-----0-2---->|
|A-------------0--2------------0--2------------0--2------------0--2------->|
\E----0---------------0---------------0---------------0------------------->|/
My baby and me/weíre missing the same stuff/Weíve all got a disease/
deficiency of love

pre-chorus: guitar 1 (lyrics match up with guitar here)
e------------------------------------------------------------------------>
B---4--------------------4-----------------------4----------------------->
G-224------------------224--------------------+++4----------------------->
D-224------------------224--------------------+++4----------------------->
A-002------------------002--------------------+++2----------------------->
E------------------------------------------------------------------------>
   Every day we still try/every night we still cry/Driving home on the 805

Chorus a: guitar 1
e--00-00-00-00---0-0000-00--00-00-00-00---0-0000-00-->
B--00-00-00-00---2-2332-00--00-00-00-00---2-2332-00-->
G--99-88-66-44---2-2222-44--99-88-66-44---2-2222-44-->
D--99-99-66-44---2-2222-44--99-99-66-44---2-2222-44-->
A--77-66-44-22---0-0000-22--77-66-44-22---0-0000-22-->
E---------------------------------------------------->
We donít know what weíre doing/We do it again/Weíre just amateur lovers/
with amateur friends

interlude: guitar 1
e------------------------------------>
B---------77777++-+------------------>
G-6666666666666++-+6666666644444444-->
D-6666666644444++-+6666666644444444-->
A-44444444---------4444444422222222-->
E------------------------------------>
I can tell you what youíre thinking now/before you think it you can settle
down

Chorus b: guitar 1
/e-00-00-00-00--+0-0000-000-000-+0-0000-000-000--->|\
|B-00-00-00-00--+0-0000-000-000-+0-0000-000-000--->|
|G-99-88-66-44--+1-4647-764-224-+1-4647-764-224--->|
|D-99-99-66-44------------------------------------>|
|A-77-66-44-22------------------------------------>|
|E------------------------------------------------>|
|                                                |
|Chorus b: guitar 2                              |
|e------------------------------------------------>|
|B------------------------------------------------>|
|G------------------------------------------------>|
|D--------------2--0-2-----0-2--2--0-2-----0-2---->|
|A---------------------0--2------------0--2------->|
\E------------0---------------0------------------->|/
We donít know what weíre doing/Letís do it again!

Verse 2: nothing/bass guitar
Try to play it down/but it never stuck/I tried to bail this town/Iím
getting no such luck

Verse 2: guitar 1
/e-+++--0---0---0---0-0-0-0-0---0--0000-0-0-0---0---0-0-0-0-0------------->|\
|B-+++--0---0---0---0---0---0---0--000--0---0---0---0---0---0------------->|
|G-+++--4---4---7---6---9---9---7--676--9---9---7---6---9---9------------->|
|D--------------------------------------------------------------++++7----->|
|A--------------------------------------------------------------++++7----->|
|E--------------------------------------------------------------++++5----->|
|                                                                        |
|verse 2: guitar 2                                                       |
|e------------------------------------------------------------------------>|
|B------------------------------------------------------------------------>|
|G------------------------------------------------------------------------>|
|D------2--0-2-----0-2--2--0-2-----0-2--2--0-2-----0-2--2--0-2-----0-2---->|
|A-------------0--2------------0--2------------0--2------------0--2------->|
\E----0---------------0---------------0---------------0------------------->|/
When nobodyís around/I keep my eyes on the clock/There ainít a cure Iíve
found/in all my times around this block

pre-chorus: guitar 1 (lyrics match up with guitar here)
e------------------------------------------------------------------------->
B------------------------------------------------------------------------->
G--------------------------------------------668-------------------------->
D-9\-----------------779---------------------779-------------------------->
A-9\-----------------779---------------------779-------------------------->
E-7\-----------------557---------------------557-------------------------->
  Everyday we still try/Every night we still cry/We drive it home on the 405

---REPEAT CHORUS A
---REPEAT INTERLUDE
---REPEAT CHORUS B

solo: guitar 1    |these are tens|       |these are tens|
/e--2320-----------10---8-875--------------10-10101010--7~------>|\< carry on
|B------31-310--787--10------8-10-7-7-75-8-10-10101010---------->||   to next
|G--------------------------------------7----------------------->|
|D-------------------------------------------------------------->|
|A-------------------------------------------------------------->|
|E-------------------------------------------------------------->|
|                                                              |
|background: guitar 2                                          |
|e-------------------------------------------------------------->|
|B-------------------------------------------------------------->|
|G-------------------------------------------------------------->|
|D-------------------------------------------------------------->|
|A-------------------------------------------------------------->|
\E-------------------------------------------------------------->|/

bridge chorus: bass and trumpets/strings
We donít know what weíre doing/Letís do it again/yeah, ya know, Weíre just
amateur lovers/with amateur friends

Interlude b: guitar 1
e----------------------------------------------------->
B---------77777++-+--------77777++-+------------------>
G-6666666666666++-+6666666644444++-+6666666644444444-->
D-6666666644444++-+6666666644444++-+6666666644444444-->
A-44444444---------44444444---------4444444422222222-->
E----------------------------------------------------->
I can tell you what youíre thinking now/Before you think it you can settle
down/Our loviní isnít gonna burn us out

---REPEAT CHORUS B

continue with guitar 2ís intro part, Jon sings random ďp-p-p-p-professionalĒ

(Iíve already tabbed throughout the song what happens next, you can figure
out what order they play it)

end on an E
e-0~------>
B-0~------>
G-1~------>
D-2~------>
A-2~------>
E-0~------>

(trumpet, voices, fade out)

============================================================================

07. Faust, Midas, and Myself

guitars used: undistorted electric, distorted electric
tuning:       Drop D

Intro: guitar 1
e-5~----2~----------5~----2~----------->
B-------------3~----------------3~----->
G-------------------------------------->
D-------------------------------------->
A-2~----0~----------2~----0~----------->
D-------------0~----------------0~----->

Verse 1: guitar 1
e-------------------------------------------------------------->
B-----------3-33-3-33-----------3-33-3-33-----------3-33-3-33-->
G-2-22------2-22-2-22-2-22------2-22-2-22-2-22------2-22-2-22-->
D-4-44-4-44-0-00-0-00-4-44-4-44-0-00-0-00-4-44-4-44-0-00-0-00-->
A-2-22-0-00-2-22-2-22-2-22-0-00-2-22-2-22-2-22-0-00-2-22-2-22-->
D-----------2-22-2-22-----------2-22-2-22-----------2-22-2-22-->
This oneís about a dream/I had last night/How an old man tracked me home/
and stepped inside/He put his foot inside the door/and gave a crooked smile

Verse 1: guitar 1
e-----------0-0-0-000--------------------->
B-----------0-0-0-000--------------------->
G-4-4-4-444/6-6-6-666-4-4-4-444-3-3-3-333->
D-5-5-5-555/7-7-7-777-5-5-5-555-4-4-4-444->
A-5-5-5-555/7-7-7-777-5-5-5-555-4-4-4-444->
D-5-5-5-555-0-0-0-000-5-5-5-555-4-4-4-444->
Something in his eyes/Something in his laugh/Something in his voice/That
made my skin crawl off

Verse 1: guitar 1
e-------------------------------------------------------------->
B-----------3-33-3-33-----------3-33-3-33-----------3-33-3-33-->
G-2-22------2-22-2-22-2-22------2-22-2-22-2-22------2-22-2-22-->
D-4-44-4-44-0-00-0-00-4-44-4-44-0-00-0-00-4-44-4-44-0-00-0-00-->
A-2-22-0-00-2-22-2-22-2-22-0-00-2-22-2-22-2-22-0-00-2-22-2-22-->
D-----------2-22-2-22-----------2-22-2-22-----------2-22-2-22-->
He said, ďIíve seen you here before/I know your name. You could have your
pick/of pretty things.

Verse 1: guitar 1
e-----------0-0-0-000--------------------->
B-----------0-0-0-000--------------------->
G-4-4-4-444/6-6-6-666-4-4-4-444-3-3-3-333->
D-5-5-5-555/7-7-7-777-5-5-5-555-4-4-4-444->
A-5-5-5-555/7-7-7-777-5-5-5-555-4-4-4-444->
D-5-5-5-555-0-0-0-000-5-5-5-555-4-4-4-444->
You could have it all/everything at once. Everything youíve seen,everything
youíll need, everything youíve ever had in fantasies.Ē

chorus: guitar 1
e-5~----2~----------5~----2~----------->
B-------------3~----------------3~----->
G-------------------------------------->
D-------------------------------------->
A-2~----0~----------2~----0~----------->
D-------------0~----------------0~----->
ďYouíve one life, youíve one life. Youíve one life left to lead.Ē

Verse 2: guitar 1
e-------------------------------------------------------------->
B-----------3-33-3-33-----------3-33-3-33-----------3-33-3-33-->
G-2-22------2-22-2-22-2-22------2-22-2-22-2-22------2-22-2-22-->
D-4-44-4-44-0-00-0-00-4-44-4-44-0-00-0-00-4-44-4-44-0-00-0-00-->
A-2-22-0-00-2-22-2-22-2-22-0-00-2-22-2-22-2-22-0-00-2-22-2-22-->
D-----------2-22-2-22-----------2-22-2-22-----------2-22-2-22-->
I woke up from my dream/as a golden man/with a girl Iíve never seen/with
golden skin/I jumped up to my feet/she asked me what was wrong

Verse 2: guitar 1
e-----------0-0-0-000--------------------->
B-----------0-0-0-000--------------------->
G-4-4-4-444/6-6-6-666-4-4-4-444-3-3-3-333->
D-5-5-5-555/7-7-7-777-5-5-5-555-4-4-4-444->
A-5-5-5-555/7-7-7-777-5-5-5-555-4-4-4-444->
D-5-5-5-555-0-0-0-000-5-5-5-555-4-4-4-444->
I began to scream/I donít think this is me/Is this just a dream/or really
happening?

---REPEAT CHORUS

bridge 1: guitar 2 (electric)
e------------------------------------------------------------->
B------------------------------------------------------------->
G------------------------------------------------------------->
D-55---5555-77---7777-99---9999-00---0000\55---55---77---7777->
A-55---5555-77---7777-99---9999-00---0000\55---55---77---7777->
D-55---5555-77---7777-99---9999-00---0000\55---55---77---7777->
What direction? What direction? Iím splitting up! Iím splitting up! This is
my personal disaffection What direction? What direction? What direction now?

Verse 3: guitar 1
e-------------------------------------------------------------->
B-----------3-33-3-33-----------3-33-3-33-----------3-33-3-33-->
G-2-22------2-22-2-22-2-22------2-22-2-22-2-22------2-22-2-22-->
D-4-44-4-44-0-00-0-00-4-44-4-44-0-00-0-00-4-44-4-44-0-00-0-00-->
A-2-22-0-00-2-22-2-22-2-22-0-00-2-22-2-22-2-22-0-00-2-22-2-22-->
D-----------2-22-2-22-----------2-22-2-22-----------2-22-2-22-->
I looked outside the glass/at golden shores/Golden ships and masts/with
golden cords/As my reflection passed/I hated what I saw

Verse 3: guitar 1
e-----------0-0-0-000--------------------->
B-----------0-0-0-000--------------------->
G-4-4-4-444/6-6-6-666-4-4-4-444-3-3-3-333->
D-5-5-5-555/7-7-7-777-5-5-5-555-4-4-4-444->
A-5-5-5-555/7-7-7-777-5-5-5-555-4-4-4-444->
D-5-5-5-555-0-0-0-000-5-5-5-555-4-4-4-444->
My golden eyes were dead/and a thought passed through my head: A heart that
is made of gold canít really beat at all

Bridge 2: guitar 2 (*= palm mute)
e-------------------------------------------------------------------------->
B-------------------------------------------------------------------------->
G-4444444444444444444444444444444444444444444444442222222222222211111112~-->
D-5555555555555555555555555555555555555555555555554444444333333322222222~-->
A-5555555555555555555555555555555555555555555555554444444333333322222220~-->
D-555555555555555555555555555555555555555555555555444444433333332222222---->
  *********************************************************************
I wanted to wake up again I wanted to wake up again Without a touch of gold
without a touch of gold

Bridge 2: bass, drums, strings
What direction? What direction? What direction? What direction? What
direction? Death or action! Life begins at the intersection.

Bridge 2: guitar
e------------------->
B------------------->
G------------------->
D-5555555577777777-->
A-5555555577777777-->
D-5555555577777777-->
What direction? What direction? What direction now?

Verse 4: guitar 1
e-------------------------------------------------------------->
B-----------3-33-3-33-----------3-33-3-33-----------3~--------->
G-2-22------2-22-2-22-2-22------2-22-2-22-2-22------2~--------->
D-4-44-4-44-0-00-0-00-4-44-4-44-0-00-0-00-4-44-4-44-0~--------->
A-2-22-0-00-2-22-2-22-2-22-0-00-2-22-2-22-2-22-0-00-2~--------->
D-----------2-22-2-22-----------2-22-2-22-----------2~--------->
I woke up as before/but the gold was gone/My wife was at the door/with her
night robe on/My heart beat once or twice/and life flooded my veins

Verse 4: guitar 1
e-----------0-0-0-000--------------------->
B-----------0-0-0-000--------------------->
G-4-4-4-444/6-6-6-666-4-4-4-444-3-3-3-333->
D-5-5-5-555/7-7-7-777-5-5-5-555-4-4-4-444->
A-5-5-5-555/7-7-7-777-5-5-5-555-4-4-4-444->
D-5-5-5-555-0-0-0-000-5-5-5-555-4-4-4-444->
Everything had changed/My lungs had found their voice/And what was once
routine was now the perfect joy

---REPEAT CHORUS














============================================================================

08. Head Over Heels (In This Life)

Intro:
|e------------------------------------------------------------------->|
|B-----------------------------7b7------------------------------7b7-->|
|G------------------------------------------------------------------->|
|D------777-----777----7777----4b4-----777-----777-----7777-----4b4-->|
|A---00------00-----55------55-----0-0------00-----5-5------55------->|
\D---00------00-----55------55-----0-0------00-----5-5------55------->|

verse 1: guitar 1
/e-0-0-0-0-3-3-3-3-0-0-0-0-3-3-3-3-2~--0~--------------------------------->|\
|B-3-3-3-3-3-3-3-3-3-3-3-3-3-3-3-3-3~--2~--------------------------------->|
|G-2-2-2-2-3-3-3-3-2-2-2-2-3-3-3-3-4~--2~--3~-----------777---------777--->|
|D-0-0-0-0-5-5-5-5-0-0-0-0-5-5-5-5-4~--2~--5~-----777999------777999------>|
|A-0-0-0-0-5-5-5-5-0-0-0-0-5-5-5-5-2~--0~--5~--555---------555------------>|
|D-0-0-0-0-5-5-5-5-0-0-0-0-5-5-5-5---------5~----------------------------->|
Head over here and take me/head over heels and aching/When I told you I was
yours/I was yours

|chorus: guitar 2
|e-000000000000000000000000000000000000000000000000000000000000->|
|B-333333333333333000000000000000333333333333333000000000000000->|
|G-222222222222222777777777777777222222222222222777777777777777->|
|D-000000000000000777777777777777000000000000000777777777777777->|
|A-000000000000000555555555555555000000000000000555555555555555->|
\D-000000000000000555555555555555000000000000000555555555555555->/
In this life, youíre the one place I call home/In this life, youíre the
feeling I belong

Chorus: guitars 1,2
e-0000000000000000000000000000000~-------------0~-------------------------->
B-3333333333333330000000000000003--------------0~-------------------------->
G-4444444444444447777777777777774~-------------7~-------------------------->
D-4444444444444447777777777777774~-------------7~-------------------------->
A-2222222222222225555555555555552~-------------5~-------------------------->
D----------------555555555555555---------------5~-------------------------->
In this life, youíre the flower and the thorn/Youíre everything thatís fair
in love and war

verse 1: guitar 1
/e-0-0-0-0-3-3-3-3-0-0-0-0-3-3-3-3-2~--0~--------------------------------->|\
|B-3-3-3-3-3-3-3-3-3-3-3-3-3-3-3-3-3~--2~--------------------------------->|
|G-2-2-2-2-3-3-3-3-2-2-2-2-3-3-3-3-4~--2~--3~-----------777---------777--->|
|D-0-0-0-0-5-5-5-5-0-0-0-0-5-5-5-5-4~--2~--5~-----777999---555777999------>|
|A-0-0-0-0-5-5-5-5-0-0-0-0-5-5-5-5-2~--0~--5~--555------------------------>|
|D-0-0-0-0-5-5-5-5-0-0-0-0-5-5-5-5---------5~----------------------------->|
Iím coming down like a gunshot/in all these battles Iíve fought/Youíre the
mark Iím aiming for/I was yours

|chorus 2:
|e-000000000000000000000000000000000000000000000000000000000000->|
|B-333333333333333000000000000000333333333333333000000000000000->|
|G-222222222222222777777777777777222222222222222777777777777777->|
|D-000000000000000777777777777777000000000000000777777777777777->|
|A-000000000000000555555555555555000000000000000555555555555555->|
\D-000000000000000555555555555555000000000000000555555555555555->/
In this life, youíre the one place I call home/In this life, youíre the
feeling I belong


Chorus 2: guitar 1
/e-0000000000000000000000000000000~------------0~--------------------------->|\
|B-3333333333333330000000000000003-------------0~--------------------------->|
|G-4444444444444447777777777777774~------------7~----2~----2~----4~----6~--->|
|D-4444444444444447777777777777774~------------7~----5~----4~----5~----7~--->|
|A-2222222222222225555555555555552~------------5~----2~----4~----5~----7~--->|
|D----------------555555555555555--------------5~----2~----4~----5~----7~--->|
In this life, youíre the flower and the thorn/Youíre everything thatís fair
in love and war/in love

Bridge: guitar 1
e--------------------------->
B--------------------------->
G-7~----9~---11\4~---------->
D-9~----11~-----5~---------->
A-9~----12~-----5~---------->
D-9~----11~-----5~---------->
And war/Head over

Bridge: guitar 2
e-------------------------------------------------------------------->
B-----55552222-------------------------55552222---------------------->
G-4444--------2222-----------------4444--------2222------------------>
D-4444----------------7777777--77774444----------------7777777--7777->
A-2222------------5555-------55----2222------------5555-------55----->
D-----------------5555-------55--------------------5555-------55----->
Heels/head over heels

Bridge: guitar 2                                        (ďeverythingĒ)
e-------------------------------------------------------------3~----------->
B-------------------------------------------------------------3~----------->
G-------------------------------------------------------------5~----------->
D-0~----------------------------------------------------------5~----------->
A-0~----------------------------------------------------------3~----------->
D-0~----------------------------------------------------------------------->
In this life Iím stubborn to the core/In this life Iíve been burning after
more/We both know what these open arms are for/Youíre everything thatís fair

Chorus 3: guitar 2
|e------------------------------------------------------------------->|
|B-----------------------------7b7------------------------------7b7-->|
|G------------------------------------------------------------------->|
|D------777-----777----7777----4b4-----777-----777-----7777-----4b4-->|
|A---00------00-----55------55-----0-0------00-----5-5------55------->|
\D---00------00-----55------55-----0-0------00-----5-5------55------->|
In this life, youíre my only one/In this life, youíre my only one/In this
life, youíre my only one/In this life, youíre my only one

---REPEAT CHORUS

|end on: guitar 2                                                          |
|e-2~----------------------------------------------------------------------->|
|B-3~----------------------------------------------------------------------->|
|G-2~----------------------------------------------------------------------->|
|D-0~----------------------------------------------------------------------->|
|A-0~----------------------------------------------------------------------->|
\D-0~----------------------------------------------------------------------->|/

============================================================================

09. Yesterdays

guitars used: undistorted electric
tuning:       Standard

Intro:
e--------------------------------------------------------------------->
B-----------------7~---7\----00~-------------------7~---7\----00~----->
G-7~---7-6--4~-----------2-2-------7777-7-6--4~-----------2-2--------->
D--------------------------------------------------------------------->
A--------------------------------------------------------------------->
E--------------------------------------------------------------------->

Verse 1:
e-0~---------------------------------------2~------------->
B-0~------------3~--3-2-0~-----------------3~------------->
G-00000-2-4~-----------------0~-----2-4~---2~--2-2-44~---->
D-2~---------------------------------------0~------------->
A-2~------------------------------------------------------>
E-0~------------------------------------------------------>
Flowers cut and brought inside/Black cars in a single line/Your family in
suits and ties/And youíre free

Verse 1:
e-0~---------------------------------------2~--5\---------0~------->
B-0~------------3~--3-2-0~-----------------3~-------------0~------->
G-00000-2-4~-----------------0~-----2-4~---2~----2-44-4~--1--2-1~-->
D-2~---------------------------------------0~-------------2~------->
A-2~------------------------------------------------------2~------->
E-0~------------------------------------------------------0~------->
The ache I feel inside/is where the life has left your eyes/Iím alone for
our last goodbye/But youíre free

Chorus:
      (yesterday)           (gone)            (yesterday)             (on)
e-5-5~----------------5-5~----------------5-5~----------------5-5~--------->
B-5--5~----0~---0~----5--5~----0~---0~----5--5~----0~---0~----5--5~----0~-->
G-6~-------2~---1~----6~-------2~---1~----6~-------2~---1~----6~-------2~-->
D-4~-------2~---2~----4~-------2~---2~----4~-------2~---2~----4~-------2~-->
A----------0~---2~-------------0~---2~-------------0~---2~-------------0~-->
E---------------0~------------------0~------------------0~----------------->
           (yesterday)                             (yesterday)
I remember you like yesterday, yesterday/I still canít believe youíre gone,
ohÖ I remember you like yesterday, yesterday/And until Iím with you, Iíll
carry on

---REPEAT INTRO

Verse 2:
e-0~---------------------------------------2~------------->
B-0~------------3~----2-0~-----------------3~------------->
G-0~----2-4~-----------------0~-----2-4~---2~--2-2-44~---->
D-2~---------------------------------------0~------------->
A-2~------------------------------------------------------>
E-0~------------------------------------------------------>
Adrift on your ocean floor/I feel weightless, numb, and sore/A part of you
in me is torn/And youíre free

Verse 2:
e-0~---------------------------------------2~--5\---------0~------->
B-0~------------3~----2-0~-----------------3~-------------0~------->
G-0~----2-4~-----------------0~-----2-4~---2~----2-44-4~--1--2-1~-->
D-2~---------------------------------------0~-------------2~------->
A-2~------------------------------------------------------2~------->
E-0~------------------------------------------------------0~------->
I woke from a dream last night/I dreamt that you were by my side/reminding
me I still had life/in me

---REPEAT CHORUS

Bridge:
e-0-0-00-0-0-00-0-0-000-00-0-0-00-0-0-00-0-0-00-00-0-0-00-0-0-00-0-0-00-00->
B-0-0-00-0-0-00-x-x-xxx-xx-0-0-00-0-0-00-x-x-xx-xx-0-0-00-0-0-00-x-x-xx-xx->
G-x-x-xx-9-9-99-7-7-777-77-x-x-xx-9-9-99-7-7-77-77-x-x-xx-9-9-99-7-7-77-77->
D-7-7-77-9-9-99-7-7-777-77-7-7-77-9-9-99-7-7-77-77-7-7-77-9-9-99-7-7-77-77->
A-7-7-77-7-7-77-5-5-555-55-7-7-77-7-7-77-5-5-55-55-7-7-77-7-7-77-5-5-55-55->
E-5-5-55-------------------5-5-55------------------5-5-55------------------>
                            Iíll carry on

Chorus 2:
      (yesterday)           (gone)            (yesterday)            (long)
e-2~------------------5-5~----------------5-5~----------------5-5~--------->
B-2~-------0~---0~----5--5~----0~---0~----5--5~----0~---0~----5--5~----0~-->
G-2~-------2~---1~----6~-------2~---1~----6~-------2~---1~----6~-------2~-->
D-4~-------2~---2~----4~-------2~---2~----4~-------2~---2~----4~-------2~-->
A-4~-------0~---2~-------------0~---2~-------------0~---2~-------------0~-->
E-2~------------0~------------------0~------------------0~----------------->
           (yesterday)                             (yesterday)
Every lament is a love song/Yesterday, yesterday/I still canít believe
youíre gone/Every lament is a love song/Yesterday, yesterday/I still canít
believe youíre gone/So long my friend, so long

============================================================================

10. Burn Out Bright

guitars used: 2 electrics
tuning:       Standard

Intro: guitar 1 (I donít exactly know how he plays this, because it sounds
                 like he uses a pick, but here are the right notes)(if you
                 want to, divide the two parts between two different
                 guitars, it might sound better)
e-2-2-2222-2-0-0--00000-0-0000-0------2-2-2222-2-0-0--00000-0-0000-0------->
B-------------------------------3-3333------------------------------3-3333->
G-------------------------------2-2222------------------------------2-2222->
D-------------------------------0-0000------------------------------0-0000->
A-2-2-2222-2----------0-0-0000-0------2-2-2222-2----------0-0-0000-0------->
E------------0-0--0000---------------------------0-0--0000----------------->

Verse 1: guitar 1 (*= palm mute)
/e-2~--------333222-------00-------3322----00----------0022------00----->|\
|B-3~--------------0000033--3333333----33----33----00330000002233------->|
|G-2~------------------------------------22----2222--44----------------->|
|D-0~------------------------------------------------------------------->|
|A---------------------------------------------------------------------->|
|E---------------------------------------------------------------------->|
|            **********************************************            |
|verse 1: guitar 2 (*= palm mute, += harmonics)                        |
|e---------------------------------------------------------------------->|
|B---------------------------------------------------------------------->|
|G---------------------------------------------------------00000000++--->|
|D-00000000--------22222222----------------0000000022222222--------++--->|
|A---------00000000--------22222222--------------------------------++--->|
\E---------------------------------33333333----------------------------->|/
   ********************************************************
Does it have to start with a broken heart/Broken dreams and bleeding parts/
We were young and world was clear/but young ambition disappears/I swore it
would never come to this/The average, the obvious/Iím still discontented
down here/Iím still discontented

chorus: guitar 1
/e---------------------------------------------------------->\
|B-55533353333222325553335300227353555333533332223255533353->|
|G---------------------------------------------------------->|
|D---------------------------------------------------------->|
|A---------------------------------------------------------->|
|E---------------------------------------------------------->|
|                                                            |
|chorus: guitar 2 (+= harmonics)                             |
|e---------------------------------------------------------->|
|B---------------------------------------------------------->|
|G-77777777--------99999999--------77777777----------------->|
|D-777777777777777799999999999999++777777777777777799995555->|
|A-555555557777777777777777999999++555555557777777799995555->|
\E---------55555555--------777777++--------5555555577773333->/
If weíve only got one try/If weíve only got one life/If time was never on
our side/then before I die/I want to burn out bright

---REPEAT INTRO

Verse 1: guitar 1 (*= palm mute)
/e---------------------------------3322----00----------0022------00----->|\
|B-7\----------------------------------33----33----0033----002233------->|
|G-7\------------------------------------22----2222--------------------->|
|D-7\--------------22222222--------------------------------------------->|
|A-5\------00000000--------22222222------------------------------------->|
|E---------------------------------------------------------------------->|
|          ************************************************            |
|verse 1: guitar 2 (*= palm mute, += harmonics)                        |
|e---------------------------------------------------------------------->|
|B---------------------------------------------------------------------->|
|G---------------------------------------------------------00000000++--->|
|D-----------------22222222----------------0000000022222222--------++--->|
|A---------00000000--------22222222--------------------------------++--->|
\E---------------------------------33333333----------------------------->|/
           ************************************************
A spark ignites/in time and space/Limping through this human race/You bite
and claw your way back home/but youíre running the wrong way/The future is
a question mark/of kerosene and electric sparks/Thereís still fire in you
yet/Yeah thereís still fire in you!

---REPEAT CHORUS

fill: guitar 1
e-2-2-2222-3-0-0-0000-0-2-2-5555-3-3-3322-0-0-0022\->
B--------------------------------------------------->
G--------------------------------------------------->
D--------------------------------------------------->
A--------------------------------------------------->
E--------------------------------------------------->

bridge: guitar 2
e-------------------------------------------00000000->
B-------------------------------------------00000000->
G-------------------------------------------11111111->
D-99999999\555555552222222299999999\555555++22222222->
A-99999999\555555552222222299999999\555555++22222222->
E-77777777\333333330000000077777777\333333++00000000->
I keep cleaning up the mess Iíve made/I wonít run away/I canít sleep in the
bed Iíve made

Chorus 2: guitar 1 (trem.12= tremolo pick 12th fret)
/e-trem.12---------------------------------------------------->|\
|B---------555444547775557522449575777555755554445477755575--->|
|G------------------------------------------------------------>|
|D------------------------------------------------------------>|
|A------------------------------------------------------------>|
|E------------------------------------------------------------>|
|                                                            |
|chorus 2: guitar 2 (+= harmonics)                           |
|e------------------------------------------------------------>|
|B------------------------------------------------------------>|
|G---------44-44-44--------66-66+++99-99-99--------6666------->|
|D---------44-44-4444-44-4466-66+++99-99-9999-99-9966667777--->|
|A---------22-22-2244-44-4444-44+++77-77-7799-99-9944447777--->|
\E-----------------22-22-22----------------77-77-77----5555--->|/
If weíve only got one life/If weíve only got one life/If time was never on
our side/then before I die/I want to burn out

Chorus 2: guitar 1 (trem.12= tremolo pick 12th fret)
/e---------------------------------------------------------->\
|B-77755575555444547775557522449575777555755554445477755575->|
|G---------------------------------------------------------->|
|D---------------------------------------------------------->|
|A---------------------------------------------------------->|
|E---------------------------------------------------------->|
|                                                            |
|chorus 2: guitar 2 (+= harmonics)                           |
|e---------------------------------------------------------->|
|B---------------------------------------------------------->|
|G-99999999----------------66666+++99999999--------6666----->|
|D-99999999999999994444444466666+++999999999999999966667777->|
|A-77777777999999994444444444444+++777777779999999944447777->|
\E---------7777777722222222----------------77777777----5555->/
before I die I want to burn out/before I die I want to burn out/before I
die  I want to burn out bright/If time was never on our side/then before I
die/I want to burn out bright

outro: guitar 1
e-4-4-4444-4-2-2--22222-2-2222-2------4-4-4444-4-2-2--22222-2-2222-0------->
B-------------------------------5-5555------------------------------5~----->
G-------------------------------4-4444------------------------------4~----->
D-------------------------------2-2222------------------------------2~----->
A-4-4-4444-4----------2-2-2222-2------4-4-4444-4----------2-2-2222-22~----->
E------------2-2--2222---------------------------2-2--2222----------0~----->

============================================================================

11. 4:12

guitars used: 2 electrics
tuning:       Standard

Verse 1: guitar 2
e-------------------------------------------------------------------------->
B-------------------------------------------------------------------------->
G-------------------------------------------------------------------------->
D-3-33--------------3-33--------------3-33--------------3-33--------------->
A-----3-33--------------3-33--------------3-33--------------3-33----------->
E---------333-333-33--------333-333-33--------333-333-33--------333-333-33->
Youíve been having trouble staying asleep/Youíve been waking up at 4:12/You
roll the voices over in your head/then you try to put them neatly on the
shelf

Verse 1: guitar 1 (*= palm muting)
/e-1131--3---3----3-1131--3---3----3-1131--3---3----3-1131--3---3----3---->|\
|B-----55-533-3-33-3----55-533-3-33-3----55-533-3-33-3----55-533-3-33-3--->|
|G-------------0----------------0----------------0----------------0------->|
|D------------------------------------------------------------------------>|
|A------------------------------------------------------------------------>|
|E------------------------------------------------------------------------>|
|  ***************************************************************       |
|Verse 1: guitar 2                                                       |
|e------------------------------------------------------------------------>|
|B------------------------------------------------------------------------>|
|G------------------------------------------------------------------------>|
|D-3-33-------------3-33-------------3-33-------------3-33---------------->|
|A-----3-33-------------3-33-------------3-33-------------3-33------------>|
\E---------333-33-33--------333-33-33--------333-33-33--------333333333--->|/
You watch the sun rise/You saw the darkness had no choice before the dawn/
With your own eyes/And then you broke out laughing from a yawn/You said,

Chorus: guitar 1
/e-33333333333333333333333333333333----22220000----0-0-0~---------->|\
|B-333003353330033533300335333003350000--------00000-0-0~---------->|
|G-00000000000000000000000000000000-------------------------------->|
|D----------------------------------------------------------------->|
|A----------------------------------------------------------------->|
|E----------------------------------------------------------------->|
|                                                                 |
|Chorus: guitar 2                                                 |
|e-------------------------------------------------0~-------------->|
|B-------------------------------------------------0~-------------->|
|G-7777----7777----7777----7777----999977775555----5~-------------->|
|D-7777555577775555777755557777555599997777555555557~-------------->|
|A-5555555555555555555555555555555577775555333355557~-------------->|
\E-----3333----3333----3333----3333------------33335~-------------->|/
ďIím so sorry Iíve been so down. I started doubting things could ever turn
around. And I began to believe that all we are is material. Itís
nonsensical.Ē

Fill: guitar 2
e--------------------->
B--------------------->
G--------------------->
D-3-33---------------->
A-----3-33------------>
E---------333-333-333->

Verse 2: guitar 2
e-------------------------------------------------------------------------->
B-------------------------------------------------------------------------->
G-------------------------------------------------------------------------->
D-------------------------------------------------------------------------->
A-------------------------------------------------------------------------->
E---------333-333-33--------333-333-33--------333-333-33--------333-333-33->
So you walk outside and everythingís new/Youíre looking at the world with
new eyes. As if youíd never seen a sky before that is blue/As if youíve
never seen the sky in your whole life

Verse 2: guitar 1 (*= palm muting)
/e-1131--3---3----3-1131--3---3----3-1131--3---3----3-1131--3---3----3---->|\
|B-----55-533-3-33-3----55-533-3-33-3----55-533-3-33-3----55-533-3-33-3--->|
|G-------------0----------------0----------------0----------------0------->|
|D------------------------------------------------------------------------>|
|A------------------------------------------------------------------------>|
|E------------------------------------------------------------------------>|
|  ***************************************************************       |
|Verse 2: guitar 2                                                       |
|e------------------------------------------------------------------------>|
|B------------------------------------------------------------------------>|
|G------------------------------------------------------------------------>|
|D-3-33-------------3-33-------------3-33-------------3-33---------------->|
|A-----3-33-------------3-33-------------3-33-------------3-33------------>|
\E---------333-33-33--------333-33-33--------333-33-33--------333333333--->|/
And then the phone rings/as it turns out you are already late/and now
youíre wondering/was peace just a temporary state?

Chorus 2: guitar 1
/e-33333333333333333333333333333333----22220000----0-0-0~---------->|\
|B-333003353330033533300335333003350000--------00000-0-0~---------->|
|G-00000000000000000000000000000000-------------------------------->|
|D----------------------------------------------------------------->|
|A----------------------------------------------------------------->|
|E----------------------------------------------------------------->|
|                                                                 |
|Chorus 2: guitar 2                                               |
|e-------------------------------------------------0~-------------->|
|B-------------------------------------------------0~-------------->|
|G-7777----7777----7777----7777----999977775555----5~-------------->|
|D-7777555577775555777755557777555599997777555555557~-------------->|
|A-5555555555555555555555555555555577775555333355557~-------------->|
\E-----3333----3333----3333----3333------------33335~-------------->|/
Youíre waiting tables and parking cars/Youíve been selling cell phones at
the shopping mall/and you began to believe that all you are is material/
Itís nonsensical

Bridge: keyboard
Yeah, ohÖ

Fill 2: guitar 2
e--------------------------------------->
B--------------------------------------->
G--------------------------------------->
D-3-33--------------3-33---------------->
A-----3-33--------------3-33------------>
E---------333-333-33--------333-333-333->

Chorus 3: guitar 1
/e-333333333333333355555555555555555~--4~--2~--0~--2~--4~--2~--0~--2~---->|\
|B-3330033533300335555--557555--5577~--5~--3~--2~--2~--5~--3~---2~-2~---->|
|G-0000000000000000---66------66--6------------2~------------------------>|
|D-----------------7777777777777777-------------------------------------->|
|A----------------------------------------------------------------------->|
|E----------------------------------------------------------------------->|
|                                                                       |
|Chorus 3: guitar 2                                                     |
|e----------------------------------------------------------------------->|
|B---------------------------------10~-9~--7~----------10~-7~------------>|
|G-7777----7777----9999----9999----11~-9~--7~--6~--7~--11~-7~--6~--7~---->|
|D-7777555577775555999977779999777711~-9~--7~--7~--9~--11~-7~--7~--9~---->|
|A-555555555555555577777777777777779~--7~--5~--7~--9~--9~--5~--7~--9~---->|
\E-----3333----3333----5555----5555------------5~--7~----------5~--7~---->|/
ďIím so sorry Iíve been so down. I started doubting things could ever turn
around. And I still canít believe that all we are/and that all of are
dreams are nothing more than material

bridge 2: guitar 1
e------------------------------------------------33333333333333333333---33->
B-3---5---6---8---6~--5~--3~------6~--5~--3~------------------------------->
G-2---4---5---7---5~--5~--4~------5~--5~--4~-------------------------000--->
D-------------------------------------------------------------------------->
A-------------------------------------------------------------------------->
E-------------------------------------------------------------------------->
Souls arenít built of stone, Sticks and bones ohÖ

Outro: guitar 1
/e-55553333333333333333555533333333333333333555533333333333----------------->|\
|B-------------------------------------------------------------------------->|
|G-------------------------------------------------------------------------->|
|D-------------------------------------------------------------------------->|
|A-------------------------------------------------------------------------->|
|E-------------------------------------------------------------------------->|
|                                                                          |
|Outro: guitar 2                                                           |
|e--1-1-1-1-1-1-1-1-1-1-1-1-1-1-1-1-1-1-1-1-1-1-1-1-1-1-1-1-1-1-1-1-1-1-1--->|
|B--3-3-3-3-3-3-3-3-3-3-3-3-3-3-3-3-3-3-3-3-3-3-3-3-3-3-3-3-3-3-3-3-3-3-3--->|
|G-------------------------------------------------------------------------->|
|D-------------------------------------------------------------------------->|
|A-------------------------------------------------------------------------->|
\E-------------------------------------------------------------------------->|/
Souls arenít built of stone, Sticks and bones/and souls arenít built of
stone

============================================================================

12. Let Your Love be Strong

guitars used: acoustic, nondistorted electric
tuning:       Drop D

Intro: acoustic (p= pull-off)
e-------------------------------------------------------------------------->
B-------------------------------------------------------------------------->
G-------------------------------------------------------------------------->
D----4---4---4--5420--7---8---8---8---9---11--11--110--12--14---14--14/16-->
A---0--0---0---0----0---0---7---7--70---0---9---9----0---0---12---12-----0->
D-0------------------------------------------------------------------------>
                 ppp                                   /\thatís ELEVEN-ZERO
intro:
e-------------------------------------------------------------------------->
B-------------------------------------------------------------------------->
G-------------------------------------------------------------------------->
D----4---4---4--5420--7---8---8---8---9---11--11--110--12-14--14--14--14--->
A---0--0---0---0----0---0---7---7--70---0---9---9----0---0--12--12--12--12->
D-0------------------------------------------------------------------------>

Verse 1: (repeat)
e-------------------------------------------------------------------------->
B-------------------------------------------------------------------------->
G-------------------------------------------------------------------------->
D----4---4---4-------7---7---7---------12--------12--------11--------9----->
A---0--0---0---0----4--4---4---4-----9---9-----8---8-----7---7-----5---5--->
D-0--------------0/4-------------4/9-------9\8-------8\7-------7\5-------5->
In this world of news, I've found nothing new/I've found nothing pure/Maybe
I'm just idealistic to assume that truth/Could be fact and form/That love
could be a verb/Maybe I'm just a little misinformed

Fill: (p= pull-off)
e---------------------------------------->
B---------------------------------------->
G---------------------------------------->
D----4---4---4--5420-----4---4---4---4--->
A---0--0---0---0----0---0--0---0---0---0->
D-0-------------------0------------------>
                 ppp            rit...
Verse 2: (repeat)
e----0---0---0-------0---0---0---------0---------0---------0---------0----->
B----0---0---0-------0---0---0---------0---------0---------0---------0----->
G-------------------------------------------------------------------------->
D----4---4---4-------7---7---7---------12--------12--------11--------9----->
A---0--0---0---0----4--4---4---4-----9---9-----8---8-----7---7-----5---5--->
D-0--------------9/4-------------4/9-------9\8-------8\7-------7\5-------5->
As the dead moon rises, and the freeways sigh/Let the trains watch over the
tides and the mist/Spinning circles in our skies tonight/Let the trucks
roll in from Los Angeles/Maybe our stars are unanimously tired

Fill 2:
e----0---0---0---------->
B----0---0---0---------->
G----------------------->
D----4---4---4--5-0-4--->
A---0--0---0---0------0->
D-0--------------------->

Chorus: guitar 2: (electric, no distortion) (listen to song for rhythm)
e-----14----------14---------14-12-------14-----17--14-13~----------------->
B----15---15~----15---------15---15~----15---------15--11~----151312~------>
G-1416---14-----14-------1416----------14---------16-------1414---12~--11~->
D-------17-----16---16~---------------17---17~-------------15-----12~--12~->
A----------------------------------------------------------------------12~->
D-------------------------------------------------------------------------->
Let your love be strong, and I don't care what goes down/Let your love be
strong enough to weather through the thunder cloud/Fury and thunder clap
like stealing the fire from your eyes

Chorus conít: acoustic
e---3~----5~----7---7---7---->
B--3-----5-----7--7---7---7-->
G-0-----7-----9-------------->
D---------------------------->
A---------------------------->
D---------------------------->
All of my world hanging on your love

Fill 3: guitar 2
e-2~----------------------------------------------------------------------->
B-3~----------------------------------------------------------------------->
G-2~----------------------------------------------------------------------->
D-0~------------------7~--8~----------9~--11~---------12~-14~-------------->
A-0~----------------------------------------------------------------------->
D-0~----------------------------------------------------------------------->

Fill: 3: acoustic
e-------------------------------------------------------------------------->
B-------------------------------------------------------------------------->
G-------------------------------------------------------------------------->
D----4---4---4--5420--7---8---8---8---9---11--11--110-12--14--14--14--14--->
A---0--0---0---0----0---0---7---7--70---0---9---9----0---0--12--12--12--12->
D-0------------------------------------------------------------------------>

Verse 3: (violins, bass, drums)(you can play this like verses 1 or 2)
Let the wars begin, let my strength wear thin/Let my fingers crack, let my
world fall apart/Train the monkeys on my back to fight/Let it start
tonight/When my world explodes, when my stars touch the ground/Falling down
like broken satellites

Chorus 2: guitar 2 (listen to song for rhythm)
e-----------------14---------14-12-------14-----17--14-13~----------------->
B---------15~----15---------15---15~----15---------15--11~----151312~------>
G-14~-----------14-------1416----------14---------16-------1414---12~--11~->
D--------------16---16~---------------17---17~-------------15-----12~--12~->
A----------------------------------------------------------------------12~->
D-------------------------------------------------------------------------->
Let your love be strong, and I don't care what goes down/Let your love be
strong enough to weather through the thunder cloud/Fury and thunder clap
like stealing the fire from your skies

Chorus 2 conít: acoustic
e---3~----5~----7---7---7-----3~----5~----7---7---7---->
B--3-----5-----7--7---7---7--3-----5-----7--7---7---7-->
G-0-----7-----9-------------0-----7-----9-------------->
D------------------------------------------------------>
A------------------------------------------------------>
D------------------------------------------------------>
All of my world hanging on your love/All of my world resting on your love

Outro: (rit... in music terms means ďretardandoĒ which is to slow the tempo)
e-------------------------------------------------------------------------->
B-------------------------------------------------------------------------->
G-------------------------------------------------------------------------->
D----4---4---4--5420--7---8---8---8---9---11--11--110-12--14--14--14--14--->
A---0--0---0---0----0---0---7---7--70---0---9---9----0---0--12--12--12--12->
D-0------------------------------------------------------------------------>
                                                          rit...
outro:
e------------------------------>
B-----------3~----------------->
G-----------2~----------------->
D-14/16-----0~----------------->
A-------0-0-0~----------------->
D-----------0~----------------->

============================================================================

BONUS: Revenge

guitars used: acoustic
tuning:       Standard

Intro: acoustic
e------------3-333----33------------------3-333----33-------->
B------------3-333----33------------------3-333----33-------->
G--0---0-----0-000--------------0---0-----0-000-------------->
D--0h2-0h2---2-222--------------0h2-0h2---2-222-------------->
A-3--------0--------------0-/5-3--------0--------------0-/5-->
E------------------0----3-----------------------0----3------->

Verse 1:
e------------------------------------------------------------>
B------------------------------------------------------------>
G--0---0--------0------0-----0--0---0--------0-----0--------->
D--0h2-0h2--------------0-------0h2-0h2-------------0-------->
A-3--------0-------------------3--------0--------------0-/5-->
E------------------0-----3----------------------0----3------->
Iím the failure, Iím everyoneís fool/and Iím losing my cool at the ends

Verse 1:
e----------------------------------------------------3~----3->
B----------------------------------------------------3~----3->
G--0---0--------0------0--------0---0--------0-------0~------>
D--0h2-0h2--------------0-------0h2-0h2--------------0~------>
A-3--------0---------------0-2-3--------0------------2~------>
E------------------0-----3----------------------0----3~------>
Iím the loser/my numberís come up/Iíve been hung up with thoughts of
revenge, revenge, revenge

Chorus:
e------------3-333----33------------------3-333----33-------->
B------------3-333----33------------------3-333----33-------->
G--0---0-----0-000--------------0---0-----0-000-------------->
D--0h2-0h2---2-222--------------0h2-0h2---2-222-------------->
A-3--------0--------------0-2-3--------0--------------------->
E------------------0----3-----------------------0----3~------>
Whoa-ohÖ  Whoa-ohÖ

Verse 2:
e------------------------------------------------------------>
B------------------------------------------------------------>
G--0---0--------0------0--------0---0--------0-----0--------->
D--0h2-0h2--------------0-------0h2-0h2-------------0-------->
A-3--------0---------------0-2-3--------0-----------------2-->
E------------------0-----3----------------------0----3------->
I watched you from my terminal view/as you struggled to rise to your end

Verse 2:
e----------------------------------------------------3~----3->
B----------------------------------------------------3~----3->
G--0---0--------0------0--------0---0--------0-------0~------>
D--0h2-0h2--------------0-------0h2-0h2--------------0~------>
A-3--------0-------------------3--------0------------2~------>
E------------------0-----3----------------------0----3~------>
I laughed hard at the insults we threw/as the weight of the world found
revenge, revenge, revenge

Chorus 2:
e--3---3-----3-333----33--3-33--3---3-----3-333----33--3-33-->
B--3---3-----3-333----33--3-33--3---3-----3-333----33--3-33-->
G--0---0-----0-000----00--0-00--0---0-----0-000----00--0-00-->
D--0h2-0h2---2-222----22--2-22--0h2-0h2---2-222----22--2-22-->
A-3--------0------------------3--------0--------------------->
E------------------0----3-----------------------0----3------->
Whoa-ohÖ have hatred and gravity won?

Chorus 2:
e--3---3-----3-333----00--3-33--3---3-----0-000----00-3~----->
B--3---3-----3-333----33--3-33--3---3-----3-333----33-3~----->
G--0---0-----0-000----00--0-00--0---0-----0-000----00-0~----->
D--0h2-0h2---2-222----22--2-22--0h2-0h2---2-222----22-0~----->
A-3--------0------------------3--------0--------------2~----->
E------------------0----3-----------------------0-----3~----->
Whoa-ohÖ whoa-oh

Bridge: (this is a keyboard part; Iíll give you my guitar version)
        *use thumb on the low E string
  Am   G    C    Gm   Am   Gm *Fadd9 Am   G    C    Gm   Am   Gm *Fadd9
e-----------------------------------------------------------------------00->
B-1~---0~---1~---3~---1~---3~---1~---1~---0~---1~---3~---1~---3~---1-11-11->
G-2~---0~---0~---3~---2~---3~---0~---2~---0~---0~---3~---2~---3~---0-00-00->
D-2~---0~---2~---5~---2~---5~---3~---2~---0~---2~---5~---2~---5~---3-33-33->
A-0~---2~---3~---5~---0~---5~---3~---0~---2~---3~---5~---0~---5~---3-33-33->
E-------------------------------1~---------------------------------1-11-11->
The world hung upside down/I drew first blood/I drew first blood/My hate
for a crown/I drew first blood/I drew first blood

Verse 3:
e-3~--------------------3-333----33-----------------3-333----33------->
B-3~--------------------3-333----33-----------------3-333----33------->
G-0~----------0---0-----0-000-------------0---0-----0-000------------->
D-0~----------0h2-0h2---2-222-------------0h2-0h2---2-222------------->
A-2~----0-/5-3--------0--------------0-2-3--------0--------------0-2-->
E-3~--3-----------------------0----3----------------------0----3------>
Revenge/I watched heaven die in today/and Iím gonna die here tonight

Verse 3:
e---------------------------33-----------------------3~----3->
B---------------------------33-----------------------3~----3->
G--0---0--------0------0--------0---0--------0-------0~------>
D--0h2-0h2--------------0-------0h2-0h2--------------0~------>
A-3--------0-------------------3--------0------------2~------>
E------------------0-----3----------------------0----3~------>
Iím a villain, I deserve to be dead/Iíve been hung up for wrecking my life/
Revenge, revenge

---REPEAT CHORUS

Bridge 2:
e-1-1-11-1-11-3-3-33-3----0-00-3-333-1-1-11-1-11-0-1-1-11-1-11-3-3-33-3-33->
B-1-1-11-1-11-3-3-33-3----1-11-3-333-1-1-11-1-11-0-1-1-11-1-11-3-3-33-3-33->
G-0-0-00-0-00-0-0-00-0----2-22-0-000-0-0-00-0-00-0-0-0-00-0-00-0-0-00-0-00->
D-3-3-33-3-33-0-0-00-0----2-22-0-000-3-3-33-3-33-0-3-3-33-3-33-0-0-00-0-00->
A-3-3-33-3-33-2-2-22-20-3-0-00-2-222-3-3-33-3-33-0-3-3-33-3-33-2-2-22-2-22->
E-1-1-11-1-11-3-3-33-3---------3-333-1-1-11-1-11---1-1-11-1-11-3-3-33-3-33->


Bridge 2:
e-0-00-000-00-0-0-0-1-1-1-1-1-11-1-1-3-0-0-00->
B-0-00-000-00-1-1-1-3-3-3-1-1-11-1-1-3-0-0-00->
G-1-11-111-11-2-2-2-3-3-3-2-2-22-2-2-0-0-0-00->
D-0-00-000-00-2-2-2-3-3-3-3-3-33-3-3-0-0-0-00->
A-2-22-222-22-0-0-0-1-1-1-3-3-33-3-3-2-------->
E-0-00-000-00-------------1-1-11-1-1-3-------->
So I stopped for a moment/to look at the sun/dying that day/When the irony
hit me/that this was revenge/The love had defended and stolen our pain away

Bridge: (this is a keyboard part; Iíll give you my guitar version)
        *use thumb on the low E string
  Am   G    C    Gm   Am   Gm *Fadd9 Am   G    C    Gm   Am   Gm *Fadd9
e-----------------------------------------------------------------------00->
B-1~---0~---1~---3~---1~---3~---1~---1~---0~---1~---3~---1~---3~---1-11-11->
G-2~---0~---0~---3~---2~---3~---0~---2~---0~---0~---3~---2~---3~---0-00-00->
D-2~---0~---2~---5~---2~---5~---3~---2~---0~---2~---5~---2~---5~---3-33-33->
A-0~---2~---3~---5~---0~---5~---3~---0~---2~---3~---5~---0~---5~---3-33-33->
E-------------------------------1~---------------------------------1-11-11->
We consumed heavenís Son/I drew first blood/I drew first blood/But my hate
was undone/I drew first blood/I drew first blood

Verse 4:
e-3~--------------------3-333----33-----------------3-333----33------->
B-3~--------------------3-333----33-----------------3-333----33------->
G-0~----------0---0-----0-000-------------0---0-----0-000------------->
D-0~----------0h2-0h2---2-222-------------0h2-0h2---2-222------------->
A-2~----0-/5-3--------0----------------2-3--------0------------------->
E-3~--3-----------------------0----3----------------------0----3~----->
Revenge/Hereís a story/how a thief had been robbed/how a murder has stolen
my rage

Verse 4:
e------------3-333----33------------------3-333-0~---3~------>
B------------3-333----33------------------3-333-3~---3~------>
G--0---0-----0-000--------------0---0-----0-000-0~---0~------>
D--0h2-0h2---2-222--------------0h2-0h2---2-222-0~---0~------>
A-3--------0--------------0-/5-3--------0-------2~---3~------>
E------------------0----3-----------------------0~---3~------>
Think of me, Lord/Iím a few breaths away/as my lungs finally rip from the cage

outro:
e------------3-333----33------------------0-000~------------->
B------------3-333----33------------------3-333~------------->
G--0---0-----0-000--------------0---0-----0-000~------------->
D--0h2-0h2---2-222--------------0h2-0h2---2-222~------------->
A-3--------0--------------0-2-3--------0------0~------------->
E------------------0----3---------------------0~------------->
Revenge Whoa-ohÖ
=======================================================================


Add comment: