All tabs: 1331485
We love you! Do you like us?
Bands » Switchfoot » Nothing Is Sound » Guitar tab

Nothing Is Sound by Switchfoot guitar tab

This is the final page that leads you directly to the Guitar Pro tab, drum tab, bass guitar tab, piano chord, etc you've chosen. This page provides information concerning Nothing Is Sound guitar tab such as its format, type of tab or chord, upload date, number of views, number of downloads and rating of this tab provided by thetabsbest.com users.

If the tab you have selected is a downloadable one (mostly these are Switchfoot Guitar Pro tabs), you need to insert so called "captcha" code and click "download" button. In case the code is correct you will be redirected to download page where your Nothing Is Sound gp4 file will be prepared. If you have entered wrong "captcha" code, you will be asked to insert it once again to get your Nothing Is Sound guitar tab.

If you browse all Switchfoot tabs or open the list of tabs and chords for Nothing Is Sound, you can see there are not only Guitar Pro tabs. Guitar tabs and chords, piano & power tabs, drum tabs, bass tabs - they all can be not only in Guitar Pro file format, but also in txt. In this case no special program is needed to read the tab. All you need to do it to open such Nothing Is Sound tab and you will see it displayed. If you wish, you can download our free tabs in txt.

thetabsbest.com tries to expand tabs database, adding new and hot songs as well as old and beloved melodies, so our archive could suit any person. Also we try to add chords and files for different music instruments, for example, you can find Switchfoot acoustic guitar tabs, piano chords or power tabs. Many songs like Nothing Is Sound have not only Nothing Is Sound guitar tab type, but provide wide selection of chords and tabs for all instruments. We also try to add more Switchfoot Guitar Pro tabs as they can bear data for whole band including sheet music.

Our newest addition - Switchfoot lyrics - is viewed the same. Select "lyrics" in the list of the tabs and chords and the text will be displayed on the next page.

File info:


Share it:

Rate it:
Rating: 0
Band nameSwitchfoot »
Song nameNothing Is Sound »
Tab typeGuitar tab »
Added07/04/2008
Size62.77 Kb
File formattxt
Views/Loads1/0

Sponsored links:
Wrong code.

Text of tab

   
Nothing Is Sound Tab by Switchfoot, 


01. Lonely Nation
02. Stars
03. Happy Is A Yuppie Word
04. The Shadow Proves The Sunshine
05. Easier Than Love
06. The Blues
07. The Setting Sun
08. Politicians
09. Golden
10. The Fatal Wound
11. We Are One Tonight
12. Daisy

============================================================================

Tabbed by: aquaknight3

	This was a particularly fun album to tab.  The music is awesome.  I
hope I was able to get everything and put it down here for you.  Now, a few
things:  please note that guitar 1 in one song will not always be guitar 1
in another song.  I tabbed these at different times and put guitar 1 as the
first guitar I heard.  Also, the tunings for the guitars will vary.  “We Are
One Tonight” has a very weird tuning that I had to make up so I could tab
the song correctly.  For 2 measures I put chord names over the measures to
give you an idea on how the tuning works.  I have put the tunings before
each song and lyrics below the correct measures of the tab.  I have tried to
differentiate the areas where two or three guitars play at one time by
encasing them with dotted lines.  Well, I think that’s it, and I hope you
will enjoy!!

============================================================================

01. Lonely Nation

Tuning: Guitar 1- Standard
        Guitar 2- Drop D

               intro: guitar 1
e-12~~--------------------------------------------------------------------->
B--------------3-5-0--3-5-0-3-3-5-0--3-5-0-3-3-5-0--3-5-0-3-3-5-0--3-5-0-3->
G-9~-h12~~----------------------------------------------------------------->
D-------------------------------------------------------------------------->
A-------------------------------------------------------------------------->
E-------------------------------------------------------------------------->
|                                                                          |
|       intro: guitar 2                                                    |
e-------------------------------------------------------------------------->
B-------------------------------------------------------------------------->
G-------------------------------------------------------------------------->
D-------2xxx0x2x-2xx0x2x-2x-xxxx0x-2x-xxxx0x-2x-xxxx0x-2x-xxxx0x-2x-xxxx0x->
A-------2xxx0x2x-2xx0x2x-2x-xxxx0x-2x-xxxx0x-2x-xxxx0x-2x-xxxx0x-2x-xxxx0x->
D-------2xxx0x2x-2xx0x2x-2x-xxxx0x-2x-xxxx0x-2x-xxxx0x-2x-xxxx0x-2x-xxxx0x->

verse 1: guitar 2
e-------------------------------------------------------------------------->
B-------------------------------------------------------------------------->
G-------------------------------------------------------------------------->
D-2x-xxxx0x-2x-xxx0x-2x-xxx0x-2x-xxx0x-2x-xxx0x-2x-xxx0x-2x-xxxx0x-10xxxxx->
A-2x-xxxx0x-2x-xxx0x-2x-xxx0x-2x-xxx0x-2x-xxx0x-2x-xxx0x-2x-xxxx0x-10xxxxx->
D-2x-xxxx0x-2x-xxx0x-2x-xxx0x-2x-xxx0x-2x-xxx0x-2x-xxx0x-2x-xxxx0x-10xxxxx->
She turns like the ocean She tells no emotion She’s been gunning down the
fight

verse 1: guitar 2
 (\/______________________guitar 1 repeat intro_____________________\/)
e-------------------------------------------------------------------------->
B-------------------------------------------------------------------------->
G-------------------------------------------------------------------------->
D-2x-xxx0x-2x-xxx0x-2x-xxx0x-2x-xxx0x-2x-xxx0x-2x-xxx0x-2x-xx0x-10-9~10-+++>
A-2x-xxx0x-2x-xxx0x-2x-xxx0x-2x-xxx0x-2x-xxx0x-2x-xxx0x-2x-xx0x-10-9~10-+++>
D-2x-xxx0x-2x-xxx0x-2x-xxx0x-2x-xxx0x-2x-xxx0x-2x-xxx0x-2x-xx0x-10-9~10-+++>
She’s just reminiscing Blood, sweat, and one thing’s missing She’s been
breaking up inside, inside

chorus: guitar 2 (A= 10th fret, C= 12th fret)
e----------2-----3------------------------------2-----3-------------------->
B----------3-----3------------------------------3-----3-------------------->
G--7----7----------C-----C--C---------7-----7------------C-----C--C-------->
D-57+++57-0--+++0-AC-+++AC-AC-+++A-C-57-+++57--0--+++0--AC-+++AC-AC-+++A-C->
A-5-+++5--0--+++0-A--+++A--A--+++A-C-5--+++5---0--+++0--A--+++A--A--+++A-C->
D-5-+++5--0--+++0-A--+++A--A--+++A-C-5--+++5---0--+++0--A--+++A--A--+++A-C->
Singing without tongues, screaming without lungs I want more than my lonely
nation, I want more than my lonely nation Desperate we are young, Separate
we are one I want more than my desperation, I want more than my lonely
nation

fill: repeat intro pt. 2 (oh...oh-oh... oh...oh-oh...)

verse 2: guitar 1
e-------------------------------------------------------------------------->
B-555-0-3-55-8-555-0-3-55-8-555-0-3-55-8-555-0-3-555-0-3-55-8-555-0-3-55--->
G-------------------------------------------------------------------------->
D-------------------------------------------------------------------------->
A-------------------------------------------------------------------------->
E-------------------------------------------------------------------------->
|                                                                          |
|verse 2: guitar 2                                                         |
e-------------------------------------------------------------------------->
B-------------------------------------------------------------------------->
G--------------------------------------------------------------------9~~--->
D-2x-xxx0x-2x-xxx0x-2x-xxx0x-2x-xxx0x-2x-xxx0x-2x-xxx0x-2x-xxx0x-9~~-9~~--->
A-2x-xxx0x-2x-xxx0x-2x-xxx0x-2x-xxx0x-2x-xxx0x-2x-xxx0x-2x-xxx0x-9~~------->
D-2x-xxx0x-2x-xxx0x-2x-xxx0x-2x-xxx0x-2x-xxx0x-2x-xxx0x-2x-xxx0x-9~~------->
We are the target market We set the corporate target We are slaves of what
we want We’re just

verse 2: guitar 1
e-------------------------------------------------------------------------->
B-55-0-3-55-8-55-0-3-55-8-55-0-3-55-8-55-0-3-55-0-3-55-8-55-0-3-55--------->
G-----------------------------------------------------------------111214++->
D-------------------------------------------------------------------------->
A-------------------------------------------------------------------------->
E-------------------------------------------------------------------------->
|                                                                          |
|verse 2: guitar 2                                                         |
e-------------------------------------------------------------------------->
B-------------------------------------------------------------------------->
G-------------------------------------------------------------------------->
D-2x-xxx0x-2x-xxx0x-2x-xxx0x-2x-xxx0x-2x-xxx0x-2x-xxx0x-2x-xxx0x-999999+++->
A-2x-xxx0x-2x-xxx0x-2x-xxx0x-2x-xxx0x-2x-xxx0x-2x-xxx0x-2x-xxx0x-999999+++->
D-2x-xxx0x-2x-xxx0x-2x-xxx0x-2x-xxx0x-2x-xxx0x-2x-xxx0x-2x-xxx0x-999999+++->
not amused and we’re just used to bad news and We are slaves of what we want

REPEAT CHORUS

fill 2: guitar 1
/e-----3333/AAAA-7777----3333/CCCC-7777\->\
|B-1111--------------1111---------------->|
|G--------------------------------------->|
|D--------------------------------------->|
|A--------------------------------------->|
|E--------------------------------------->/
|                                        /
|fill 2: guitar 2                       /
|e----------------------------->       /
|B----------------------------->      /
|G-444444------555555---------->     /
|D-444444------555555---------->    /
|A-222222------333333---------->   /
\D----------------------------->__/
oh-oh-oh-OHHHHHHHHHHHHHH

bridge: guitar 1
e-------------------------------------------------------------------------->
B-------------------------------------------------------------------------->
G-------------------------------------------------------------------------->
D----------------------14\2/14--------------------------------------------->
A-------------------------------------------------------------------------->
E-------------------------------------------------------------------------->
|                                                                          |
|bridge: guitar 2                                                          |
e-------------------------------------------------------------------------->
B------------------3333----------3335555----------------------------------->
G------------------2222----------2224444-----2----2----2--------2-----2222->
D-2+++-+++-+++-+++-0000-2+++-+++-0002222-022-0-22-0-22-0-22-202-0-202-0000->
A-2+++-+++-+++-+++------2+++-+++---------022---22---22---22-202---202------>
D-2+++-+++-+++-+++------2+++-+++---------022---22---22---22-202---202------>
Lonely, lonely

bridge: guitar 1 (F= 15th fret, A= 10th fret)
e-FFFFFFF-AAAA-777777-FFFFFFF-AAAA-777777-FFFFFFF-AAAA-777777-->\
B--------------------------------------------------------------> \_____
G--------------------------------------------------------------> repeat\
D-------------------------------------------------------------->       |
A-------------------------------------------------------------->        \
E-------------------------------------------------------------->         \
|                                                                         \
|bridge: guitar 2                                               2nd        |
e--------------------------------------------------------------|----------->
B--------------------------------------------------------------|----------->
G--------------------------------------------------------------|----------->
D--------------------------------------------------------------|-9999-AAAA->
A--------------------------------------------------------------|-9999-AAAA->
D--------------------------------------------------------------|-9999-AAAA->
Don’t leave me hollow I’m tired don’t leave me hollow I’m tired of feeling
low, of feeling hollow I’m tired of feeling low, of feeling hollow I’m tired
of feeling low, of feeling hollow I’m tired of feeling low, of feeling
hollow, of feeling hollow, of feeling hollow

REPEAT CHORUS

outro: guitar 2
e-------------------------------------------->
B----------3-------3------------------------->
G----------2-------2-----2-------2---5~~----->
D-0-2202202022022020-0-2-0-2-0-2-0-2-5~~----->
A-0-2202202-2202202--0-2---2-0-2---2-3~~----->
D-0-2202202-2202202--0-2---2-0-2---2--------->
I want more than my lonely nation I want more than my lonely nation oh-ohhhhh

============================================================================

02. Stars

Tuning: Guitar 1- Drop D
        Guitar 2- Drop D

intro: guitar 1  play a total of 4x
e------------------------------------------------------------------------>
B------------------------------------------------------------------------>
G------------------------------------------------------------------------>
D-0-12-0-11-12-00-16-000-14-00-17-21-19-0-12-0-11-12-00-16-000-140141414->
A-0-12-0-12-12-00-16-000-14-00-17-21-19-0-12-0-12-12-00-16-000-140141414->
D-0-12-0-11-12-00-16-000-14-00-17-21-19-0-12-0-11-12-00-16-000-140141414->

intro: guitar 1
e------------------------------------------------------------------->
B------------------------------------------------------------------->
G------------------------------------------------------------------->
D--------4---------------4---------------4---------------4---------->
A----45------7--45---45------7-777---45------7--45---45------7-777-->
D-020--04-045-02--020--04-045-----020--04-045-02--020--04-045------->

verse 1: guitar 1
e------------------------------------------------------------------------->
B--------------------------3-3-33-3-3-3-3-33-3-3----------3-3-33-3-2-222-->
G-----------------7-7-77-7-2-2-22-2-2-5-5-55-5-5-7-7-77-7-2-2-22-2-2-222-->
D-0-000-0-00-0-00-7-7-77-7-0-0-00-0-0-5-5-55-5-5-7-7-77-7-2-2-22-2-2-222-->
A-0-000-0-00-0-00-5-5-55-5-0-0-00-0-0-3-3-33-3-3-5-5-55-5-0-0-00-0-0-000-->
D-0-000-0-00-0-00-5-5-55-5-0-0-00-0-0------------5-5-55-5----------------->
Maybe I’ve been the problem Maybe I’m the one to blame But even when I turn
it off and blame myself The outcome feels the same I’ve been thinkin’ maybe

verse 1: guitar 2 (guitar 1 repeat verse 1 riff)
e------------------------------------------------------------------------->
B---------------------0003--------00001111111111-------------------------->
G-22222222222222222222----22222222---------------00000000----------------->
D---------------------------------------------------------22222222222222-->
A------------------------------------------------------------------------->
D------------------------------------------------------------------------->
I’ve been partly cloudy Maybe I’m the chance of rain and Maybe I’m overcast
and Maybe all my luck’s washed down the drain I’ve been thinkin’ ‘bout

verse 1: guitar 1
e----------------------------->
B----------------------------->
G--------2~~----4~~----5~~---->
D-5~~----2~~----4~~----5~~---->
A-5~~----0~~----2~~----3~~---->
D-5~~------------------------->
Everyone Everyone you look so lonely

chorus: guitar 1
e-------------------------------------------------------------------------->
B-------------------------------------------------------------------------->
G----------------------555555-----------------------------------------2~~-->
D-000000000-5555555555-555555-555555--------4--------555555555-222222-2~~-->
A-000000000-5555555555-333333-555555----45------7777-555555555-222222-0~~-->
D-000000000-5555555555--------555555-020--04-045-----555555555-222222------>
|                                                                          |
|chorus: guitar 2                                                          |
e-------------------------------------------------------------------------->
B-------------------------------------------------------------------------->
G-------------------------------------------------------------------------->
D-444220----444220-----4---2-0-----------------------444220----4--2-0------>
A-------000-------000--------------------------------------000------------->
D------------------------------555555---------------------------------5~~-->
But when I look at the Stars when I look at the Stars when I look at the
Stars I see someone else when I look at the Stars the Stars I feel like
myself

chorus: guitar 1
e---------------------------------->
B---------------------------------->
G---------------------------------->
D--------4---------------4--------->
A----45------7--45---45------7-777->
D-020--04-045-02--020--04-045------>

verse 2: guitar 2 (guitar 1 repeat verse 1 riff twice) repeat this \/
e------------------------------------------------------------------------->
B---------------------0003--------00001111111111-------------------------->
G-22222222222222222222----22222222---------------00000000----------------->
D---------------------------------------------------------2222222222222--->
A------------------------------------------------------------------------->
D------------------------------------------------------------------------->
Stars looking at a planet watching entropy and pain And maybe start to
wonder how the chaos in our lives could pass as sane I’ve been thinkin’
‘bout the meaning of resistance Of a hope beyond my own and suddenly the
infinite and penitent begin to look like home I’ve been thinkin’ ‘bout

verse 2: guitar 1
e----------------------------->
B----------------------------->
G--------2~~----4~~----5~~---->
D-5~~----2~~----4~~----5~~---->
A-5~~----0~~----2~~----3~~---->
D-5~~------------------------->
Everyone Everyone you look so empty

chorus 2: guitar 1
e-------------------------------------------------------------------------->
B-------------------------------------------------------------------------->
G----------------------555555-----------------------------------------2~~-->
D-000000000-5555555555-555555-555555--------4--------555555555-222222-2~~-->
A-000000000-5555555555-333333-555555----45------7777-555555555-222222-0~~-->
D-000000000-5555555555--------555555-020--04-045-----555555555-222222------>
|                                                                          |
|chorus 2: guitar 2                                                        |
e-------------------------------------------------------------------------->
B-------------------------------------------------------------------------->
G-------------------------------------------------------------------------->
D-444220----444220-000-4---2-0-----------------------444220----4--2-0------>
A-------000------------------------------------------------000------------->
D---------------------------------555555------------------------------5~~-->
But when I look at the Stars when I look at the Stars when I look at the
Stars I  see someone else But when I look at the Stars the Stars feel like
myself Yeah!

bridge: guitar 1
e-------------------------------------------------------------------------->
B-------------------------------------------------------------------------->
G-------------------------------------------------------------------------->
D--------4---------------4---------555-444-777--------4--------555-444-777->
A----45------7--45---45------7-777-555-444-777----45------7777-555-444-777->
D-020--04-045-02--020--04-045------555-444-777-020--04-045-----555-444-777->
the Stars the Stars

bridge: guitar 1
e--------------------------------------------------3~~-->
B--------------------------------------------------3~~-->
G--------2~~-------------------------2~~----4~~----5~~-->
D-5~~----2~~----4~~----5~~----5~~----2~~----4~~----5~~-->
A-5~~----0~~----4~~----5~~----5~~----0~~----2~~----3~~-->
D-5~~-----------4~~----5~~----5~~----------------------->
|                                                       |
|bridge: guitar 2                                       |
e----0~~----9~~-----2-------0~~--0~~---0~~------2--3~~-->
B----------------------0~~-------------------------3~~-->
G------------------------------------------------------->
D------------------------------------------------------->
A------------------------------------------------------->
D------------------------------------------------------->
Everyone Everyone we feel so lonely Everyone yeah Everyone we feel so empty

But when I look at the Stars when I look at the Stars when I look at the

chorus 3: guitar 1
e-33333333------------------------------------------0~~->
B-33333333-88888888-----------------88888888-555555-2~~->
G-55555555-77777777-----------------77777777-444444-2~~->
D-55555555-55555555--------4--------55555555-222222-2~~->
A-33333333-55555555----45------7777-55555555-222222-0~~->
D----------55555555-020--04-045-----55555555-222222----->
Stars I feel like myself when I look at the Stars the Stars I see someone

outro: guitar 1
/e------------------------------------------------------------------------>\
|B------------------------------------------------------------------------>|
|G------------------------------------------------------------------------>|
|D--------4---------------4---------------4---------------4-----------0~~->|
|A----45------7--45---45------7-777---45------7--45---45------7--4-5--0~~->|
|D-020--04-045-02--020--04-045-----020--04-045-02--020--04-045-02-----0~~->|
|                                                                          |
|outro: guitar 2                                                           |
|e-----------------------------------------000----555-333---5-3333-2~-2~~->|
|B--------------------------------------------333---------3--------------->|
|G---------------------------------444-222-------------------------------->|
|D------------------------------------------------------------------------>|
|A------------------------------------------------------------------------>|
\D------------------------------------------------------------------------>/

============================================================================

03. Happy Is A Yuppie Word

Tuning: Guitar 1- Standard
        Guitar 2- Drop D

intro: guitar 1
/e------------------------------------------------------------------------>\
|B------------------------------------------------------------------------>|
|G-5-7/9--57--5-7/9--57--5-7/9--57--5-7/9--57----5-7/9--57--5-7/9--57----->|
|D------7~~-7~~----7~~-7~~----7~~-7~~----5~~-5-7~~----7~~-7~~----5~~-5-7~->|
|A------------------------------------------------------------------------>|
|E------------------------------------------------------------------------>|
|                                                                          |
|intro: guitar 2(R= 10th fret)                                             |
|e------------------------------------------------------------------------>|
|B------------------------------------------------------------------------>|
|G------------------------------------------------------------------------>|
|D-7xx0xxxxx7xx0xxxxx7xx0xxxx7xx0xxx5xx/Rxx\3xxxxx7xx0xxxx5xx/Rxx\3xxxxxx->|
|A-7xx0xxxxx7xx0xxxxx7xx0xxxx7xx0xxx5xx/Rxx\3xxxxx7xx0xxxx5xx/Rxx\3xxxxxx->|
\D-7xx0xxxxx7xx0xxxxx7xx0xxxx7xx0xxx5xx/Rxx\3xxxxx7xx0xxxx5xx/Rxx\3xxxxxx->/

verse 1: guitar 1
/e------------------------------------------------------------------->\
|B-------------------------------------10---------------------5------>|
|G----------------5h7-7~~----------------12-9------------------5h7~~->|
|D-------------------------------------------7h9bbbbb---------------->|
|A------------------------------------------------------------------->|
|E------------------------------------------------------------------->|
|                                                                     |
|verse 1: guitar 2(R= 10th fret)                                      |
|e------------------------------------------------------------------->|
|B------------------------------------------------------------------->|
|G------------------------------------------------------------------->|
|D-7xx0xxx5xx/Rxx\3xxxxx7xx0xxxx5xx/Rxx\3xxxxxx7xx0xxx5xx/Rxx\3xxxxx->|
|A-7xx0xxx5xx/Rxx\3xxxxx7xx0xxxx5xx/Rxx\3xxxxxx7xx0xxx5xx/Rxx\3xxxxx->|
\D-7xx0xxx5xx/Rxx\3xxxxx7xx0xxxx5xx/Rxx\3xxxxxx7xx0xxx5xx/Rxx\3xxxxx->/
everyone dies everyone loves a fight nothing is sound nothing is right side
right evening comes and the sun goes down in red

verse 1: guitar 1
/e-------------------------------------7~->\
|B---------------------------------------->|
|G-------------------000----022----------->|
|D-------------------333-222-------------->|
|A---------------------------------------->|
|E---------------------------------------->|
|                                          |
|verse 1: guitar 2                         |
|e---------------------------------------->|
|B---------------------------------------->|
|G---------------------------------------->|
|D-7xx0xxx5xx/Rxx\3xxxxx2xxxxxx3xxxxxx5~-->|
|A-7xx0xxx5xx/Rxx\3xxxxx2xxxxxx3xxxxxx5~-->|
\D-7xx0xxx5xx/Rxx\3xxxxx2xxxxxx3xxxxxx5~-->/
nothing is cool when will all the fighting end? when will all the fighting
end?

chorus: guitar 1
/e-4445----------2223----------4445----------2223---------->\
|B--------------------------------------------------------->|
|G--------------------------------------------------------->|
|D--------------------------------------------------------->|
|A--------------------------------------------------------->|
|E--------------------------------------------------------->|
|                                                           |
|chorus: guitar 2                                           |
|e--------------------------------------------------------->|
|B--------333333--------333333--------333333--------222222->|
|G-222222-222222--------222222-222222-222222--------222222->|
|D-222222-000000-555555-000000-222222-000000-555555-000000->|
|A-000000--------555555--------000000--------555555-------->|
\D---------------555555----------------------555555-------->/
happy is a yuppie word nothing in the world could fail me now it’s empty as
an argument I’m running down a life that won’t cash out

fill: guitar 1
/e--------------------->\
|B--------------------->|
|G-5-7/9--57--5-7/9---->|
|D------7~~-7~~----7~~->|
|A--------------------->|
|E--------------------->|
|                       |
|fill: guitar 2         |
|e--------------------->|
|B--------------------->|
|G--------------------->|
|D-7xx0xxxxx7xx0xxxxx-->|
|A-7xx0xxxxx7xx0xxxxx-->|
\D-7xx0xxxxx7xx0xxxxx-->/

verse 2: guitar 1
/e------------------------------------------------------------------------>\
|B-----------------------------------------------------------10----------->|
|G-------------------------------------------------------------12-9------->|
|D-----------------------------------------------------------------7h9bbb->|
|A------------------------------------------------------------------------>|
|E------------------------------------------------------------------------>|
|                                                                          |
|verse 1: guitar 2(R= 10th fret)                                           |
|e------------------------------------------------------------------------>|
|B------------------------------------------------------------------------>|
|G------------------------------------------------------------------------>|
|D-7770---555/RRR\3-----7770xxxx555/RRR\3xxxxxx7770xxx555/RRR\3xxxxxx----->|
|A-7770---555/RRR\3-----7770xxxx555/RRR\3xxxxxx7770xxx555/RRR\3xxxxxx----->|
\D-7770---555/RRR\3-----7770xxxx555/RRR\3xxxxxx7770xxx555/RRR\3xxxxxx----->/
everything fails everything runs its course a time and a place for all of
this love and war everyone buys, everyone’s got a price

verse 2: guitar 1
/e----------------555555-33333-44444-555555---->\
|B--------------------------------------------->|
|G--------------------------------------------->|
|D--------------------------------------------->|
|A--------------------------------------------->|
|E--------------------------------------------->|
|                                               |
|verse 2: guitar 2(R= 10th fret)                |
|e--------------------------------------------->|
|B--------------------------------------------->|
|G--------------------------------------------->|
|D-7770xxx555/RRR\333333-222222-3333333-55555-->|
|A-7770xxx555/RRR\333333-222222-3333333-55555-->|
\D-7770xxx555/RRR\333333-222222-3333333-55555-->/
nothing is new, when will all the failures rise?  when will all the failures
rise, rise

REPEAT CHORUS twice with these lyrics:
happy is a yuppie word nothing in the world could fail me now as empty as an
argument I’m running down a life that won’t cash out happy is a yuppie word
blessed is the man who’s lost it all happy is a yuppie word whoa

bridge:
looking for an orphanage I’m looking for a bridge I can’t burn down I don’t
believe the emptiness I’m looking for the kingdom coming down 

bridge: guitar 1
/e-7778757787878-15~----7778757787878-15-15-15-15-15---------------------->\
|B------------------------------------------------------------------------>|
|G------------------------------------------------------------------------>|
|D------------------------------------------------------------------------>|
|A------------------------------------------------------------------------>|
|E------------------------------------------------------------------------>|
|                                             ___________________________  |
|bridge: guitar 2                            /   get louder and louder   \ |
|e------------------------------------------------------------------------>|
|B------------------------------------------------------------------------>|
|G------------------------------------------------------------------------>|
|D-------------------------------------------1010101010101010101010101010->|
|A-------------------------------------------1010101010101010101010101010->|
\D-------------------------------------------1010101010101010101010101010->/
everything is meaningless I want more than simple cash can buy happy is a
yuppie word happy is a yuppie word happy is a yuppie word happy is a yuppie

repeat chorus with these lyrics:
nothing is sound nothing is sound nothing is sound nothing is sound nothing
is sound nothing is sound nothing is sound

repeat chorus with these lyrics:
happy is a yuppie word nothing in the world could fail me now happy is a
yuppie word whoa

outro: guitar 1
/e-------------------------------------->\
|B-------------------------------------->|
|G-579------579------579----5-7-9------->|
|D----7~~------7~~------7~~-------7~~--->|
|A-------------------------------------->|
|E-------------------------------------->|
|                                        |
|outro: guitar 2                         |
|e-------------------------------------->|
|B-------------------------------------->|
|G-------------------------------------->|
|D-7770~~---7770~~---7770~~-7-7-7-0~~--->|
|A-7770~~---7770~~---7770~~-7-7-7-0~~--->|
\D-7770~~---7770~~---7770~~-7-7-7-0~~--->/
so come down yeah, so come down yeah, so come down yeah

============================================================================

04. The Shadow Proves The Sunshine

Tuning: Guitar 1- Standard

(riff 1) verse 1: guitar 1 (really soft) repeat
e------------------------------------------------------------------>
B------------------------------------------------------------------>
G------------------------------------------------------------------>
D-2-222-22-------------------------------------------------1-1-111->
A---------2-222-22-4-4-444-2-2-222-0-0-000-2-2-222-4-4-444--------->
E------------------------------------------------------------------>
Sunshine, won't you be my mother Sunshine, come and help me sing My heart is
darker than these oceans My heart is frozen underneath We are 

(riff 2) chorus: guitar 1 (still soft)
e------------------------------------------------------------------>
B------------------------------------------------------------------>
G------------------------------------------------------------------>
D-2-2-222-2-22----------------------------------------------------->
A--------2-----4-4-444-2-2-22-0-0-02-2-22-0-0-02-2-222------------->
E------------------------------------------------------------------>
crooked souls trying to stay up straight, Dry eyes in the pouring rain well
The shadow proves the sunshine The shadow proves the sunshine

chorus: repeat riff 2
 Two scared little runaways Hold fast to the break of day light where The
 shadow proves the sunshine The shadow proves the sunshine

verse 2: repeat riff 1
 Oh Lord, why did you forsake me?  Oh Lord, don't be far away, away Storm
 clouds gathering beside me Please Lord, don't look the other way

chorus: repeat riff 2
 Crooked souls trying to stay up straight Dry eyes in the pouring rain well
 The shadow proves the sunshine The shadow proves the sunshine

chorus: repeat riff 2
 Two scared little runaways Hold fast to the break of day light where The
 shadow proves the sunshine The shadow proves the sunshine

bridge: guitar 1 (not softly)
e-------------------------------------2~--------------2~---------->
B-55~-------------55~-------------55~-2~----------55~-2~---------->
G-44~-2~--6~--2~--44~-2~--6~--2~--44~-----6~--2~--44~-----6~--2~-->
D-22~-2~--6~--2~--22~-2~--6~--2~--22~-4~--6~--2~--22~-4~--6~--2~-->
A-----0~--4~--0~--22~-0~--4~--0~--22~-4~--4~--0~--22~-4~--4~--0~-->
E-----------------00~-------------00~-2~----------00~-2~---------->
Yeah Yeah, shine on me Yeah Yeah, shine on me Yeah Yeah, shine on me Yeah
Yeah

bridge: repeat riff 2
 oh, oh, oh

chorus: repeat riff 2
 Crooked souls trying to stay up straight Dry eyes in the pouring rain well
 The shadow proves the sunshine The shadow proves the sunshine

chorus: repeat riff 2
 Two scared little runaways Hold fast to the break of day light where The
 shadow proves the sunshine The shadow proves the sunshine

bridge/outro: guitar 1 (not softly)
e-------------------------------------2~--------------2~------------->
B-55~-------------55~-------------55~-2~----------55~-2~----------5~->
G-44~-2~--6~--2~--44~-2~--6~--2~--44~-----6~--2~--44~-----6~--2~--4~->
D-22~-2~--6~--2~--22~-2~--6~--2~--22~-4~--6~--2~--22~-4~--6~--2~--2~->
A-----0~--4~--0~--22~-0~--4~--0~--22~-4~--4~--0~--22~-4~--4~--0~--2~->
E-----------------00~-------------00~-2~----------00~-2~----------0~->
Yeah Yeah, shine on me Yeah Yeah, shine on me Yeah Yeah, shine on me Shine
on me, the shadow proves the sunshine

============================================================================

05. Easier Than Love

Tuning: Guitar 1- Drop D

intro: guitar 1 (*= bent note)
e-------------------------------------------------------------------------->
B-------------------------------------------------------------------------->
G-/7-7-7-------------7-7-7-------------7-7-7------------------------------->
D-/7-7-797999*9*9*99-7-7-797999*9*9*99-7-7-797999*9*9*99-3-3-333999*9*9*99->
A-/5-5-5555----------5-5-5555----------5-5-5555----------3-3-3335---------->
D---------5-----------------5-----------------5----------3-3-3335---------->
                          lalalalalala      lalalalalalala
verse 1: guitar 1
e------------------------------------------------------------------->
B------------------------------------------------------------------->
G-7-7-7-------------------------------7-7-7------------------------->
D-7-7-797999*9*9*99-3-3-333999*9*9*99-7-7-797999*9*9*99-3-3-333555-->
A-5-5-5555----------3-3-3335----------5-5-5555----------3-3-333555-->
D--------5----------3-3-3335-----------------5----------3-3-333555-->
Sex is currency She sells cars, She sells magazines Addictive bittersweet,
clap your hands, with the hopeless nicotines

verse 1: guitar 1
e-------------------------------------------------------------------->
B-------------------------------------------------------------------->
G-6x-x7xxx/11xxx2xxx7xx6x7xx9xx6xx-6x-x7xxx/11xxx2xxx7xx6x7xx9xx6xx-->
D-6x-x7xxx/11xxx2xxx7xx6x7xx9xx6xx-6x-x7xxx/11xxx2xxx7xx6x7xx9xx6xx-->
A-4x-x5xxx/9-xxx0xxx5xx4x5xx7xx4xx-4x-x5xxx/9-xxx0xxx5xx4x5xx7xx4xx-->
D-------------------------------------------------------------------->
Everyone's a lost romantic, Since our love became a kissing show Everyone's
a cassanova, Come and pass me the mistletoe

pre-chorus: guitar 1
e---------------------->
B---------------------->
G-55554444------------->
D-5555444444445555+++-->
A-3333222244445555+++-->
D---------44445555+++-->
Everyone's been scared to death of dying here alone

chorus: guitar 1
e------------------------------------------------------------------------>
B--3-3--3-3----------------3-3--3-3-------------------------------------->
G--2-2--2-2----7-7--7-7----2-2--2-2----7-7--7-7-------------------------->
D-00000000000557575575755000000000000557575575755/99999777775555555555++->
A-00000000000555555555555000000000000555555555555/99999777775555555555++->
D-00000000000555555555555000000000000555555555555/99999777775555555555++->
She is easier than love It's easier to lie It's easier to fake and smile and
bribe It's easier to leave It's easier to lie It's harder to face ourselves
at night Feeling alone, What have we done? What is the monster we've become?

chorus: guitar 1
e---------------->
B---------------->
G---------------->
D-7777777775555-->
A-7777777775555-->
D-7777777775555-->
Were is my soul? lalalalalalala

fill: guitar 1
e--------------------------------------->
B--------------------------------------->
G--------------------------------------->
D-0-120120999*9*9*990-120120999*9*9*99-->
A-0-1201205---------0-1201205----------->
D-0-1201205---------0-1201205----------->
          lalalalala

verse 2: guitar 1
e------------------------------------------------------------>
B------------------------------------------------------------>
G-7-7x-x7-------------------------7-7x-x7-------------------->
D-7-7x-x7-5-5x-x5-3-3x-x3-2-2x-x2-7-7x-x7-5-5x-x5-3-3x-x3-2-->
A-5-5x-x5-5-5x-x5-3-3x-x3-2-2x-x2-5-5x-x5-5-5x-x5-3-3x-x3-2-->
D---------5-5x-x5-3-3x-x3-2-2x-x2---------5-5x-x5-3-3x-x3-2-->
Sex is industry, The CEO, of corporate policy Skin-deep ministry, Suburban
youth, hailing so-called liberty

verse 2: guitar 1
e-------------------------------------------------------------------->
B-------------------------------------------------------------------->
G-6x-x7xxx/11xxx2xxx7xx6x7xx9xx6xx-6x-x7xxx/11xxx2xxx7xx6x7xx9xx6xx-->
D-6x-x7xxx/11xxx2xxx7xx6x7xx9xx6xx-6x-x7xxx/11xxx2xxx7xx6x7xx9xx6xx-->
A-4x-x5xxx/9-xxx0xxx5xx4x5xx7xx4xx-4x-x5xxx/9-xxx0xxx5xx4x5xx7xx4xx-->
D-------------------------------------------------------------------->
Every advertising antic, a banner waves with a neon glow War and love become
pedantic, We wage love with a mistletoe

pre-chorus: guitar 1
e---------------------->
B---------------------->
G-55554444------------->
D-5555444444445555+++-->
A-3333222244445555+++-->
D---------44445555+++-->
Everyone's been scared to death of dying here alone

REPEAT CHORUS

REPEAT FILL 2x

bridge: guitar 1
e-------------------------------------------------------------------------->
B-------------------------------------------------------------------------->
G---------------11b----11b-----------------------11b----11b----7-7--------->
D----9xx-979-9xx---12-9---12-11-9xx-79-7-9xx-79---12-9---12-9---1179-99-79->
A-------------------------------------------------------------------------->
D-------------------------------------------------------------------------->
It's easier to love, It's easier to love It's easier to love, It's easier to
love She is easier to love, It's easier to, love

bridge: guitar 1 (r= 10th fret)
e------------------------------------------------>
B------------------------------------------------>
G-------------------------------------------9~~-->
D-rrrrrr9999944444555557777799999\44444555555~~-->
A-rrrrrr9999944444555557777799999\4444455555----->
D-rrrrrr9999944444555557777799999\4444455555----->
Everyone's been scared to death of, Everyone's been scared to death of,
Everyone's been scared to death of dying here alone, alone

chorus 3: guitar 1
e------------------------------------------------------------------------>
B--3-3--3-3----------------3-3--3-3-------------------------------------->
G--2-2--2-2----7-7---------2-2--2-2----7-7--7-7-------------------------->
D-00000000000557575------0-0000000000557575575755/99999777775555555555++->
A-00000000000555555------0-0000000000555555555555/99999777775555555555++->
D-00000000000555555------0-0000000000555555555555/99999777775555555555++->
She’s easier than love, It's easier to lie, It's easier to fake and smile
and bribe It's easier to leave, It's easier to lie, It's harder to face
ourselves at night Feeling alone, What have we done? What is the monster
we've become?

chorus 3: guitar 1
e----------------------------------------------------------------->
B----------------------------------------------------------------->
G----------------------------------------------------------------->
D-77777777755555555557-7-7-7-7-7-5-5-5-5-5-9*99*99*99*99*99*99*9-->
A-77777777755555555557-7-7-7-7-7-5-5-5-5-5------------------------>
D-77777777755555555557-7-7-7-7-7-5-5-5-5-5------------------------>
Where is my soul? Where is my - Where is my soul? lalalalalalalalalala

outro: guitar 1
e-------------------------------------------------------------------------->
B-------------------------------------------------------------------------->
G-------------------------------------------------------------------------->
D-0-1201209*9*9*9*9*0-1201209*9*9*9*9*0-1201209*9*9*9*9*0-1201209*9*9*9*9*->
A-0-1201205---------0-1201205---------0-1201205---------0-1201205---------->
D-0-1201205---------0-1201205---------0-1201205---------0-1201205---------->
          lalalalala        lalalalala        lalalalala

outro: guitar 1
e------2-2~~-->
B------3-3~~-->
G------2-2~~-->
D-++-++0-0~~-->
A-++-++0-0~~-->
D-++-++0-0~~-->

============================================================================

06. The Blues

Tuning: Guitar 1- Standard
        Guitar 2- Standard

intro: guitar 1 (acoustic)
e-5--5--5--5--2--2--2--2--5--5--5--5--2--2--0--0--->
B-7--7--7--7--3--3--3--3--7--7--7--7--3--3--3--3--->
G--7--7--7--7--0--0--0--0--7--7--7--7--0--0--3--3-->
D-------------------------------------------------->
A-------------------------------------------------->
E-------------------------------------------------->

verse 1: guitar 1
e-5--5--5--5--2--2--2--2--5--5--5--5--2--2--2--2---------------------->
B-7--7--7--7--3--3--3--3--7--7--7--7--3--3--3--3---------------------->
G--7--7--7--7--0--0--0--0--7--7--7--7--0--0--0--0-2-2-2-2-2-2-2-2-2-2->
D--------------------------------------------------------------------->
A-------------------------------------------------0-0-0-0-0-0-0-0-0-0->
E--------------------------------------------------------------------->
is this the new year or just another night?  is this the new fear or just
another fright?  is this the new tear or just another desperation?

fill: guitar 1
e-5--5--5--5--2--2--2--2-->
B-7--7--7--7--3--3--3--3-->
G--7--7--7--7--0--0--0--0->
D------------------------->
A------------------------->
E------------------------->

verse 1: guitar 1
e-------------2--2--2--2--------------2--2--2--2--3--3--3--3--2--2--2--2--->
B-55-77-55-77-3--3--3--3--55-77-77-55-3--3--3--3--5--5--5--5--5--5--5--5--->
G-44-44-44-44--0--0--0--0-44-44-44-44--0--0--0--0--4--4--4--4--4--4--4--4-->
D-------------------------------------------------------------------------->
A-------------------------------------------------------------------------->
E-------------------------------------------------------------------------->
is this the finger or just another fist?  is this the Kingdom or just a hit
and miss?  a misdirection, most in all this desperation

fill: guitar 1
e-------------2--2--2--2--->
B-55-55-77-77-3--3--3--3--->
G-44-44-44-44--0--0--0--0-->
D-------------------------->
A-------------------------->
E-------------------------->

verse 1: guitar 1
e-5--5--5--5--0--0--0--0--2--2--2--2--2--2--2--2-->
B-7--7--7--7--3--3--3--3--3--3--3--3--3--3--3--3-->
G--7--7--7--7--2--2--2--2--4--4--4--4--0--0--0--0->
D------------------------------------------------->
A------------------------------------------------->
E------------------------------------------------->
is this what they call freedom?  is this what you call pain?  is this what
they call discontented fame?

verse 1: guitar 1
e-5--5--5--5--0--0--0--0--2--2--2--2--2--2--2--2-->
B-7--7--7--7--3--3--3--3--3--3--3--3--3--3--3--3-->
G--7--7--7--7--2--2--2--2--4--4--4--4--0--0--0--0->
D------------------------------------------------->
A------------------------------------------------->
E------------------------------------------------->
it'll be a day like this one when the world caves in when the world caves in
when the world caves in

fill: guitar 1
e-5--5--5--5--2--2--0--0--->
B-7--7--7--7--3--3--3--3--->
G--7--7--7--7--0--0--3--3-->
D-------------------------->
A-------------------------->
E-------------------------->

verse 2: guitar 1
e-2-2-2-2-2-2-0-0-2-2-2-2-2-2-0-0-2-2-2-2-3-3-0-0-2-2-2-2-2-2-5-5->
B-0-0-0-0-3-3-3-3-0-0-0-0-3-3-3-3-5-5-5-5-5-5-5-5-0-0-0-0-3-3-3-3->
G-4-4-4-4-0-0-0-0-4-4-4-4-0-0-0-0-4-4-4-4-4-4-4-4-4-4-4-4-0-0-0-0->
D---------------------------------2-2-2-2-5-5-5-5----------------->
A----------------------------------------------------------------->
E----------------------------------------------------------------->
I'm singing this one like a broken piece of glass from broken arms and
broken noses in the back is this the new year or just another desperation?

verse 2: guitar 1
e-2--2--2--2--0--0--0--0--2--2--2--2--3--3--3--3-->
B-3--3--3--3--3--3--3--3--3--3--3--3--3--3--3--3-->
G-2--2--2--2--2--2--2--2--4--4--4--4--4--4--4--4-->
D--0--0--0--0--2--2--2--2--4--4--4--4--5--5--5--5->
A------------------------------------------------->
E------------------------------------------------->
you're pushing till you're shoving you bend until you break till you stand
on the broken fields where your fathers lay

verse 2: guitar 1
e-2--2--2--2--0--0--0--0--2--2--2--2--3--3--3--3--2--2--2--2--3--3--3--3-->
B-3--3--3--3--3--3--3--3--3--3--3--3--3--3--3--3--3--3--3--3--3--3--3--3-->
G-2--2--2--2--2--2--2--2--4--4--4--4--4--4--4--4--2--2--2--2--4--4--4--4-->
D--0--0--0--0--2--2--2--2--4--4--4--4--5--5--5--5--0--0--0--0--5--5--5--5->
A------------------------------------------------------------------------->
E------------------------------------------------------------------------->
it'll be a day like this one when the world caves in when the world caves in
when the world caves in when the world caves

verse 2: guitar 1
e-2--2--2--2--3--3--3--3--2--2--2--2--3--3--3--3--0--0--2--2--5--5--5--5-->
B-3--3--3--3--3--3--3--3--3--3--3--3--3--3--3--3--0--0--2--2--5--5--5--5-->
G-2--2--2--2--4--4--4--4--2--2--2--2--4--4--4--4--2--2--4--4--7--7--7--7-->
D--0--0--0--0--5--5--5--5--0--0--0--0--5--5--5--5--2--2--4--4--7--7--7--7->
A------------------------------------------------------------------------->
E------------------------------------------------------------------------->
in when the world caves in when the world caves in

verse 3: guitar 1
/e-2--2--2--2--0--0--0--0--2--2--2--2--3--3--3--3-->\
|B-3--3--3--3--0--0--0--0--3--3--3--3--3--3--3--3-->|
|G-2--2--2--2--2--2--2--2--4--4--4--4--4--4--4--4-->|
|D--0--0--0--0--2--2--2--2--4--4--4--4--5--5--5--5->|
|A------------------------------------------------->|
|E------------------------------------------------->|
|                                                   \
|verse 3: guitar 2 (electric)                        |REAPEAT 4x
|e-2~~---------0~~---------2~~---------3~~------3-->/
|B-3~~---------0~~---------3~~---------3~~------3-->|
|G-2~~---------2~~---------4~~---------4~~------4-->|
|D-0~~---------2~~---------4~~---------7~~------7-->|
|A-------------0~~---------2~~---------5~~------5-->|
\E-------------------------------------3~~------5-->/
There's nothing here worth saving, is no one here at all?  is there any net
left that could break our fall?  it'll be a day like this one when the sky
falls down and the hungry and poor and deserted are found are you
discontented?  have you been pushing hard?  have you been through and down
this broken house of cards?  it'll be a day like this one when the world
caves in when the world caves in when the world caves in

fill: guitar 1
/e-2--2--2--2--3--3--3--3--2--2--2--2--3--3--3--3-->\
|B-3--3--3--3--3--3--3--3--3--3--3--3--3--3--3--3-->|
|G-2--2--2--2--4--4--4--4--2--2--2--2--4--4--4--4-->|
|D--0--0--0--0--5--5--5--5--0--0--0--0--5--5--5--5->|
|A------------------------------------------------->|
|E------------------------------------------------->|
|                                                   |
|fill: guitar 2 (electric)                          |
|e-2~~---------------------2~~--------------------->|
|B-3~~---------------------3~~--------------------->|
|G-2~~---------------------2~~--------------------->|
|D-0~~---------------------0~~--------------------->|
|A------------------------------------------------->|
\E------------------------------------------------->/

verse 4: guitar 1
e-2--2--2--2--2--2--2--2--5--5--5--5--2--2--2--2--3-3-3-3-2--2--2--2-->
B-3--3--3--3--3--3--3--3--7--7--7--7--3--3--3--3--5-5-5-5-3--3--3--3-->
G--4--4--4--4--0--0--0--0--7--7--7--7--4--4--4--4-4-4-4-4--0--0--0--0->
D-------------------------------------------------2-2-2-2------------->
A--------------------------------------------------------------------->
E--------------------------------------------------------------------->
is there nothing left now? nothing left to sing are there any left who
haven't kissed the enemy?  is this the New Year or just another desperation?

fill: guitar 1
e-3--3--3--3--2--2--2--2-->
B-5--5--5--5--3--3--3--3-->
G--4--4--4--4--0--0--0--0->
D------------------------->
A------------------------->
E------------------------->

outro: guitar 1
/e-2--2--2--2--0--0--0--0--2--2--2--2--3--3--3--3-->\
|B-3--3--3--3--0--0--0--0--3--3--3--3--3--3--3--3-->|
|G-2--2--2--2--2--2--2--2--4--4--4--4--4--4--4--4-->|
|D--0--0--0--0--2--2--2--2--4--4--4--4--5--5--5--5->|
|A------------------------------------------------->|
|E------------------------------------------------->|
|                                                   \
|outro: guitar 2                                     |REAPEAT 3x
|e-2~~---------0~~---------2~~---------3~~------3-->/
|B-3~~---------0~~---------3~~---------3~~------3-->|
|G-2~~---------2~~---------4~~---------4~~------4-->|
|D-0~~---------2~~---------4~~---------7~~------7-->|
|A-------------0~~---------2~~---------5~~------5-->|
\E-------------------------------------3~~------5-->/
just as I could find you, do the wicked never lose?  is there any honest
song to sing besides these blues?  and nothing is okay till the world caves
in till the world caves in till the world caves in till the world caves in
till the world caves in until the world caves in until the world caves in
until the world caves in until the world caves in until the world caves in
until the world caves in

end on:
e-2~~->
B-3~~->
G-2~~->
D-0~~->
A----->
E----->

============================================================================

07. The Setting Sun

Tuning: Guitar 1- Drop D
        Guitar 2- Drop D

intro: guitar 1
e-555-5-------------------------------------------------------------------->
B----3-3------------------------------------------------------------------->
G------/666-----7776-------------------666-----7776------------------------>
D----------9-7-5----974-5-45-4-5-4b-2-0---9-7-5----974-5-45-4-5-45-4-5-45\->
A--------------------------------------00~~-------------------------------->
D-------------------------------------------------------------------------->
|                                                                          |
|intro: guitar 2                                                           |
e-------------------------------------------------------------------------->
B-------------------------------------------------------------------------->
G---------6-666666----------4444444444444-666666---------44444444444444444->
D---------7-777777-2-222222/5555555555555-777777-2-22222/55555555555555555->
A---------7-777777-2-222222/5555555555555-777777-2-22222/55555555555555555->
D---------7-777777-2-222222/5555555555555-777777-2-22222/55555555555555555->

intro: guitar 1
/e----------------------------------------->\
|B----------------------------------------->|
|G-666-----7776---------------------------->|
|D----9-7-5----974-5-45-4-5-4b-2-0--------->|
|A--------------------------------0-------->|
|D---------------------------------0~~----->|
|                                           |
|intro: guitar 2                            |
|e----------------------------------------->|
|B----------------------------------------->|
|G-666666---------44444444444444444-------->|
|D-777777-2-22222/555555555555555550~~----->|
|A-777777-2-22222/555555555555555550~~----->|
\D-777777-2-22222/555555555555555550~~----->/

verse 1: guitar 1
/e----------------------------------------------------------->| \\
|B----------------------------6--------------5-2h3p2-3-2-3-2->| ||_______
|G----------------------4-4-44---7-7-6h7p6-4-2--------------->| |_________\
|D----------------------------------------------------------->|           ||
|A----------------------------------------------------------->| make this-/|
|D----------------------------------------------------------->| match to   /
|                                                           ____this      /
|verse 1: guitar 2          |______________________|_______/             /
|e-------------------------------------------------->                   /
|B-------------------------------------------------->                  /
|G---------------6xxx6xx6xx6------------6xxxxxxxxxx->                 /
|D-0xxxxxx5xxxxxx4xxx4xx4xx42xxxxxxxxxx/7xxxxxxxxxx->                /
|A-0xxxxxx5xxxxxx2xxx2xx2xx22xxxxxxxxxx/7xxxxxxxxxx->               /
\D-0xxxxxx5xxxxxx-----------2xxxxxxxxxx/7xxxxxxxxxx->______________/
I’ve got a wound that doesn’t heal Burning out again Burning out again

verse 1: guitar 1
/e---------------------------------------------------------->\
|B-------------------3--2h3p2h3p2~~------------------------->|
|G----------------------------------0-0---0-0-6-6h7p6h7p6-6->|
|D--------------------------------2-----4------------------->|
|A---------------------------------------------------------->|
|D---------------------------------------------------------->|
|                                                            |
|verse 1: guitar 2                                           |
|e---------------------------------------------------------->|
|B---------------------------------------------------------->|
|G-------------------6xxx6xx6xx6--------------6xxxxxxxxxxxx->|
|D-0xxxxxxxx5xxxxxxxx4xxx4xx4xx42xxxxxxxxxxxx/7xxxxxxxxxxxx->|
|A-0xxxxxxxx5xxxxxxxx2xxx2xx2xx22xxxxxxxxxxxx/7xxxxxxxxxxxx->|
\D-0xxxxxxxx5xxxxxxxx-----------2xxxxxxxxxxxx/7xxxxxxxxxxxx->/
I’m not sure which of me is real I’m alone again Burning out again

pre-chorus: guitar 2
e----------------------->
B----------------------->
G-5~~-------4~~--------->
D-3~~-------5~~--------->
A-3~~-------5~~--------->
D-3~~-------5~~--------->
My hope’s run underneath it all The day that I’ll be home

chorus: guitar 1
/e-(5/15)-\5-\3~~------------------------8/10\8\2------------------------->\
|B--------------------------------------------------3~~------------------->|
|G------------------------------------------------------------------------>|
|D------------------------------------------------------------------------>|
|A------------------------------------------------------------------------>|
|D------------------------------------------------------------------------>|
|                                                                          |
|chorus: guitar 2                                                          |
|e------------------------------------------------------------------------>|
|B-------------------------------3333333-------------------------33333333->|
|G-------6666666-----------------2222222-6666666-----------------22222222->|
|D-------7777777-2222222-9999999-0000000-7777777-2222222-9999999-00000000->|
|A-------7777777-2222222-9999999-0000000-7777777-2222222-9999999-00000000->|
\D-------7777777-2222222-9999999-0000000-7777777-2222222-9999999-00000000->/
It won’t be long, I belong somewhere past the setting sun Finally free,
Finally strong somewhere back where I belong

chorus: guitar 1
/e------------------------------------------------------------------------>\
|B------------------------------------------------------------------------>|
|G-/666------7776---------------------666-----7776------------------------>|
|D-----9-7-5-----974-5-45-4-5-4b-2-0-----9-7-5----974-5-45-4-5-4b-2-0----->|
|A----------------------------------0--------------------------------0---->|
|D-----------------------------------0~~------------------------------0~~->|
|                                                                          |
|chorus: guitar 2                                                          |
|e------------------------------------------------------------------------>|
|B-------------------------33333333--------------------------3333333333~~->|
|G-6666666----------444444-22222222-66666666---------4444444-2222222222~~->|
|D-7777777-22222222/555555-00000000-77777777-2222222/5555555-0000000000~~->|
|A-7777777-22222222/555555-00000000-77777777-2222222/5555555-0000000000~~->|
\D-7777777-22222222/555555-00000000-77777777-2222222/5555555-0000000000~~->/
yeah-ahhhh ahhh-yeah               yeah-ahhhh ahhh-yeah


verse 2: guitar 1
/e---------5-7~~--------------------------------------------3~~-3~~->\
|B----------------------------------------------10-8~~------3~~-2~~->|
|G-------------------4---6--6h7-6--------------9------------0~~-3~~->|
|D--------------------------------------------7--------------------->|
|A------------------------------------------------------------------>|
|D------------------------------------------------------------------>/
|                                                                   /
|verse 2: guitar 2                                                 /
|e---------------------------------------------------------->     /
|B---------------------------------------------------------->    /
|G-------------------6xxx6xx6xx6--------------6xxxxxxxxxxxx->   /
|D-12xxxxxxx5xxxxxxxx4xxx4xx4xx42xxxxxxxxxxxx/7xxxxxxxxxxxx->  /
|A-12xxxxxxx5xxxxxxxx2xxx2xx2xx22xxxxxxxxxxxx/7xxxxxxxxxxxx-> /
\D-12xxxxxxx5xxxxxxxx-----------2xxxxxxxxxxxx/7xxxxxxxxxxxx->/
They’re selling shares of me again, I’m not buying it, I’m not buying it

verse 1: guitar 1
/e-------------5-7------------------------------------------>\
|B----------5-7---7~~-----------5-7-5~~--------------------->|
|G-----------------------------------------7-9-7-9-7-77-6--->|
|D--------------------------------------9-9-9--------------->|
|A---------------------------------------------------------->|
|D---------------------------------------------------------->|
|                                                            |
|verse 2: guitar 2                                           |
|e---------------------------------------------------------->|
|B---------------------------------------------------------->|
|G-------------------6xxx6xx6xx6--------------6xxxxxxxxxxxx->|
|D-0xxxxxxxx5xxxxxxxx4xxx4xx4xx42xxxxxxxxxxxx/7xxxxxxxxxxxx->|
|A-0xxxxxxxx5xxxxxxxx2xxx2xx2xx22xxxxxxxxxxxx/7xxxxxxxxxxxx->|
\D-0xxxxxxxx5xxxxxxxx-----------2xxxxxxxxxxxx/7xxxxxxxxxxxx->/
My wound goes deeper than the skin, There’s no hiding it, So I’m not trying
it

  repeat pre-chorus
  repeat chorus

fill: guitar 2
e-------------------------------------------------------------------------->
B-------------------------------------------------------------------------->
G-------------------------------------------------------------------------->
D-12121212\7777777/101010101010101010/12121212\7777777/101010101010101010-->
A-12121212\7777777/101010101010101010/12121212\7777777/101010101010101010-->
D-12121212\7777777/101010101010101010/12121212\7777777/101010101010101010-->
yeah-ahhhh ahhh-yeah                    yeah-ahhhh ahhh-yeah

bridge: guitar 1                              gt. 2 come in
e----------------------------------------------------00000----------------->
B----------------------------------------------------00000-7~~------------->
G-5-5-555-6-6-6-7-6-5-5-555-6-6-6-7-6-5-5-555-4-4444-66666-7~~-5~~--------->
D-5-5-555-6-6-6-7-6-5-5-555-6-6-6-7-6-5-5-555-5-5555-77777-7~~-5~~-5xxxxxx->
A-3-3-333-4-4-4-5-4-3-3-333-4-4-4-5-4-3-3-333-5-5555-77777-5~~-3~~-5xxxxxx->
D---------------------------------------------5-5555-77777-----5~~-5xxxxxx->
let the weak say I am strong It won’t be long Let the right say I was wrong
and it won’t be let us find where we belong, beyond this setting sun, beyond
this setting sun yeah-ahhh ahh-yeah

last chorus: guitar 1
/e--\9-\7~~------------------------/9-/7~~-------------------------->\
|B------------------------------------------------------------------>|
|G------------------------------------------------------------------>|
|D------------------------------------------------------------------>|
|A------------------------------------------------------------------>|
|D------------------------------------------------------------------>|
|                                                                    |
|last chorus: guitar 2                                               |
|e------------------------------------------------------------------>|
|B-------------------------3333333-------------------------3333333-->|
|G-6666666-----------------2222222-6666666-----------------2222222-->|
|D-7777777-2222222-9999999-0000000-7777777-2222222-9999999-0000000-->|
|A-7777777-2222222-9999999-0000000-7777777-2222222-9999999-0000000-->|
\D-7777777-2222222-9999999-0000000-7777777-2222222-9999999-0000000-->/
It won’t be long, I belong somewhere past the setting sun finally free,
finally strong somewhere back where I belong

last chorus: guitar 1
/e----------------------------------------------------------2~~--->\
|B---------------------------------------------------------------->|
|G-/666------7776---------------------666-----7776---------------->|
|D-----9-7-5-----974-5-45-4-5-4b-2-0-----9-7-5-----974~~---------->|
|A----------------------------------00~~-------------------------->|
|D---------------------------------------------------------------->/
|                                                                 /
|last chorus: guitar 2                                        ___/
|e---------------------------------------------------------->/
|B---------------------------------------------------------->|
|G-6666666----------444444444444444-66666666---------4~~---->|
|D-7777777-22222222/555555555555555-77777777-2222222/5~~---->|
|A-7777777-22222222/555555555555555-77777777-2222222/5~~---->|
\D-7777777-22222222/555555555555555-77777777-2222222/5~~---->/
yeah-ahhhh ahhh-yeah               yeah-ahhhh ahhh-yeah

============================================================================

08. Politicians

Tuning: Guitar 1- Standard
        Guitar 2- Drop D

intro: guitar 1
e-0000000-0-0-0-000000-0-0-0-0000000-0-0-0-000000-0-0-0-0--->
B-0000000-0-0-0-000000-0-0-0-0000000-0-0-0-000000-0-0-0-0--->
G-4444444b4b4b4b444444b4b4b4b4444444b4b4b4b444444b4b4b4b4--->
D----------------------------------------------------------->
A----------------------------------------------------------->
E----------------------------------------------------------->
 (oh, oh ohhhhhhh)

intro: guitar 2
e----------------------------------------------------------------->
B----------------------------------------------------------------->
G---------------------------------------------------------7-7----->
D-22020-5-55/999-22020-5-55/999-22020-5-55/999h10101010-55757554-->
A-22020-5-55/999-22020-5-55/999-22020-5-55/999h10101010-55-5-554-->
D-22020-5-55/999-22020-5-55/999-22020-5-55/999h10101010-55-5-554-->

verse 1: guitar 1
/e--------------------------------------------------------------->\
|B--------------------------------------------------------------->|
|G----------------------444/55\4--------------------------------->|
|D-------444/77\5---------------------444/77\555555555-55757----->|
|A--------------------------------------------------------------->|
|E--------------------------------------------------------------->|
|                                                                 |
|verse 1: guitar 2                                                |
|e--------------------------------------------------------------->|
|B--------------------------------------------------------------->|
|G-------------------------------------------------------7-7----->|
|D-22020----------022020--------022020--------10101010-55757554-->|
|A-22020----------022020--------022020--------10101010-55-5-554-->|
\D-22020----------022020--------022020--------10101010-55-5-554-->/
Everything is broken Everything is breaking Everything is breaking down,
breaking down


verse 1: guitar 1
/e--------------------------------------------------------------->\
|B--------------------------------------------------------------->|
|G----------------------444/55\4-----------------------5-55-5---->|
|D-------444/77\5---------------------444/77\555555555--------7-->|
|A--------------------------------------------------------------->|
|E--------------------------------------------------------------->|
|                                                                 |
|verse 1: guitar 2                                                |
|e--------------------------------------------------------------->|
|B--------------------------------------------------------------->|
|G--------------------------------------------------------------->|
|D-22020----------022020--------022020--------10101010-77-7-777-->|
|A-22020----------022020--------022020--------10101010-77-7-777-->|
\D-22020----------022020--------022020--------10101010-77-7-777-->/
Everything is bleeding Everything is bleeding Ever


Add comment: