All tabs: 1331485
We love you! Do you like us?
Bands » 6stringmen » Simple » Guitar tab

Simple by 6stringmen guitar tab

This is the final page that leads you directly to the Guitar Pro tab, drum tab, bass guitar tab, piano chord, etc you've chosen. This page provides information concerning Simple guitar tab such as its format, type of tab or chord, upload date, number of views, number of downloads and rating of this tab provided by thetabsbest.com users.

If the tab you have selected is a downloadable one (mostly these are 6stringmen Guitar Pro tabs), you need to insert so called "captcha" code and click "download" button. In case the code is correct you will be redirected to download page where your Simple gp4 file will be prepared. If you have entered wrong "captcha" code, you will be asked to insert it once again to get your Simple guitar tab.

If you browse all 6stringmen tabs or open the list of tabs and chords for Simple, you can see there are not only Guitar Pro tabs. Guitar tabs and chords, piano & power tabs, drum tabs, bass tabs - they all can be not only in Guitar Pro file format, but also in txt. In this case no special program is needed to read the tab. All you need to do it to open such Simple tab and you will see it displayed. If you wish, you can download our free tabs in txt.

thetabsbest.com tries to expand tabs database, adding new and hot songs as well as old and beloved melodies, so our archive could suit any person. Also we try to add chords and files for different music instruments, for example, you can find 6stringmen acoustic guitar tabs, piano chords or power tabs. Many songs like Simple have not only Simple guitar tab type, but provide wide selection of chords and tabs for all instruments. We also try to add more 6stringmen Guitar Pro tabs as they can bear data for whole band including sheet music.

Our newest addition - 6stringmen lyrics - is viewed the same. Select "lyrics" in the list of the tabs and chords and the text will be displayed on the next page.

File info:


Share it:

Rate it:
Rating: 0
Band name6stringmen »
Song nameSimple »
Tab typeGuitar tab »
Added04/30/2008
Size0.85 Kb
File formattxt
Views/Loads1/0

Sponsored links:
Wrong code.

Text of tab

   
1:---------------------------------------------------------------|
2:------0----------0----------0-------------0--------------------|
3:----0----------0----------0----------0-------------------------|
4:---------2----------2----------1--------2----------------------|
5:--3----------2----------3----------2---------------------------|
6:---------------------------------------------------------------|




1:---------------------------------------------------------------|
2:--------------------------0------------------------------------|
3:------0-------------0---------------0------------0-------------|
4:---2------------2---------------0-------------0----------------|
5:---------2-------------3---------------2-------------0---------|
6:-0------------0--------------3-------------2-------------------|

Visit www.directTABS.com for more free tablature!


Add comment: